Cifra Club

Foi Difícil

Dibob

Cifrado: Principal (guitarra y guitarra eléctrica)
tono: A
Intro 2x:
e|--------------------------------------------------------------------------------|
B|--------------10----------------10---------------10-----------------10-12-10-9--|
G|-----9---9------------9---9--------------9---9------------9---9-----------------|
D|-7-7---7---7-7------7---7---7-7------7/9---9--9-9-----9-9---9---9-9-------------|
A|--------------------------------------------------------------------------------|
E|--------------------------------------------------------------------------------|

2ª Parte:
  Base:       A5      B5      D5     E5       2x
  Guita Solo: A5      G#5     F#5     G#5  B5   2x (notas em oitava)

A5         B5        D5         E5           A5
 Te dei várias razões pra você vir me conhecer
          B5     D5          E5           A5
Se era má intenção não deu tempo pra perceber
          B5      D5       E5         A5
Não tenha medo não, vamos ali pro canto
         B5             D5              E5      
Pode deixar que eu não mordo, e isso eu te garanto

Refrão:
D5        A5
Não me esqueço
E5      B5       D5          A5    E5
 Da maneira como isso tudo aconteceu
D5        A5            E5
 Você gostou de um jeito
             B5
Que eu nunca tinha visto
D5         A5      E5
Nem parece que era eu

  Base:       A5      B5      D5     E5       2x
  Guita Solo: A5      G#5    F#5     G#5  B5  2x (notas em oitava)

A5      Bm5       D5         E5        A5
 Não podia ter jogado essa chance fora
        Bm5           D5             E5        A5
Não deu pra ser antes se não foi que seja agora
        Bm5           D5         E5
Depois não adianta se arrepender
A5      Bm5         D5         E5      [D5]
 Se foi desse jeito é porque havia de ser

Refrão:
D5        A5
Não me esqueço
E5      B5       D5          A5    E5
 Da maneira como isso tudo aconteceu
D5        A5            E5
 Você gostou de um jeito
             B5
Que eu nunca tinha visto
D5         A5      E5
Nem parece que era eu

Baixo:
G|-------------------------|
D|-------------------------|
A|-------------5---5-7-5-7-|
E|-5-0-5-7-0-7---7---------|  5x

Guita solo (entra na 2a vez):         2x
e|-------------------------------------|
B|-------------------------------------|
G|-6------7-----9---9---9-7-7---7---7--|
D|---7------7-----7---7-------7---7----|
A|-------------------------------------|
E|-------------------------------------|

Guitarra base (entra na 3a vez):
e|-------------------------------------------|
B|-------------------------------------------|
G|-------------------------------------------|
D|-6h7-7-7-7-6h7-7-7-7-6h7-7-7-7-6h7-7-6h7-7-| (abafado)
A|-------------------------------------------|
E|-------------------------------------------|

E volta para a base:

   A5    B5     D5    E5      A5    B5    D5    E5
e|-----------------------------------------------------|
B|-----------------------------------------------------|
G|-6-----6-----6-----6h7-6---6-----6-----6-----9-9-9-9-|
D|---7-9---7-9---7-9-------7---7-9---7-9---7-9-9-9-9-9-|
A|---------------------------------------------7-7-7-7-|
E|-----------------------------------------------------|

Refrão:
D5        A5
Não me esqueço
E5      B5       D5          A5    E5
 Da maneira como isso tudo aconteceu
D5        A5            E5
 Você gostou de um jeito
             B5
Que eu nunca tinha visto
D5         A5      E5
Nem parece que era eu

  base:       A5        B5        D5        E5              3x
              A5        B5   C#5   B5   A5    G#5   F#5 G#5 A5 (deixa soar)
  Guita Solo: faz notas em 8ª, mas não idênticas à base

  No refão, pode-se tocar assim tbm:
D5         A5
não me esqueço 
E5    B5         D5         C#5  B5  A5
da maneira como isso tudo aconteceu
D5      A5   
vc gostou de um jeito
E5         B5            D5        C#5    B5  A5
q eu nunca tinha visto, nem parece q era eu
Composición de Dedeco / Falcon / Gesta / Miguel
Colaboración y revisión:
68 vistas
    • ½ Tono
    • A
    • Bb
    • B
    • C
    • Db
    • D
    • Eb
    • E
    • F
    • F#
    • G
    • Ab
  • Agregar a la lista

    0 comentarios

    Ver todos los comentarios

    ¿Lograste tocar?

    1 Tocaron 0 Aún no

    ¡Graba un video tocando Foi Difícil y envíanoslo!

    00:00 / 00:00
    Outros vídeos desta música
    Repetir Calidad Automático
    Outros vídeos desta música
    00:00 / 00:00
    Automático
    OK