Cifra Club

Já Era (Proibido)

Dibob

Cifrado: Principal (guitarra y guitarra eléctrica)
tono: G
[Intro] G  Em  C  D

E|---------------------------------------------------|
B|---------------------------------------------------|
G|---------------------------------------------------|
D|-----------------13------------------------13------|
A|--16-16-13-14-16---16-13----16-16-13-14-16---16-13-|
E|---------------------------------------------------|

E|---------------------------------------------------|
B|---------------------------------------------------|
G|---------------------16-16-15-15-------------------|
D|--16-16-15-15-------------------16-----------------|
A|-------------16------------------------------------|
E|---------------------------------------------------|

G                  Em
Já me disseram que puteiro não era pra mim
C                   D
Como é que eu pude acreditar?
G                      Em
Mas eu to com dinheiro, sei que vai ser maneiro
C            D 
E todas elas vão me dar

C                    Bm
Mulher da night só me dava um trabalho
A                    G
E as putas só me dizem sim
C                       Bm
Durmo com uma, duas, três e o caralho
A     Bm     C    D       G
Todas elas querem dar pra mim

G
E eu ainda sou feliz
Am                            Bm         Am
Pro puteiro eu sigo sorridente, sorridente
G
E eu ainda sou feliz
Am                            Bm         Am
No puteiro vou comendo gente, pra sempre
G
Feliz

E|---------------------------------------------------|
B|---------------------------------------------------|
G|---------------------------------------------------|
D|-----------------13------------------------13------| 2x
A|--16-16-13-14-16---16-13----16-16-13-14-16---16-13-|
E|---------------------------------------------------|

E|---------------------------------------------------|
B|---------------------------------------------------|
G|---------------------16-16-15-15-------------------|
D|--16-16-15-15-------------------16-----------------|
A|-------------16------------------------------------|
E|---------------------------------------------------|

G                  Em
Já me disseram que puteiro não era pra mim
C                   D
Como é que eu pude acreditar?
G                      Em
Mas eu to com dinheiro, sei que vai ser maneiro
C            D 
E todas elas vão me dar

C                    Bm
Mulher da night só me dava um trabalho
A                    G
E as putas só me dizem sim
C                       Bm
Durmo com uma, duas, três e o caralho
A     Bm     C    D       G
Todas elas querem dar pra mim

G
E eu ainda sou feliz
Am                            Bm         Am
Pro puteiro eu sigo sorridente, sorridente
G
E eu ainda sou feliz
Am                            Bm         Am
No puteiro vou comendo gente, pra sempre
G
Feliz

C             D                    Bm
Elas vão reclamar, se eu sair de lá
              Em      D
Se eu botar a conta na pendura
C               D                Bm               
Se eu sair de lá, Vou me engaubelar
               Em        D
Eu vou correr com a benga dura, Com a benga dura

[Final] C  D  Bm  Em  D 
        C  D  Bm  Em  D 
00:00 / 00:00
Otros videos de esta canción
Repetir
Otros videos de esta canción
Composición de Dibob / Prexeca Bangers
Colaboración y revisión:
  • Jean Bispo
    • ½ Tono
    • A
    • Bb
    • B
    • C
    • Db
    • D
    • Eb
    • E
    • F
    • F#
    • G
    • Ab
  • Agregar a la lista

    0 comentarios

    Ver todos los comentarios

    ¿Lograste tocar?

    0 Tocaron 0 Aún no

    ¡Graba un video tocando Já Era (Proibido) y envíanoslo!

    00:00 / 00:00
    OK