Cifra Club

Pau Mandado

Dibob

Cifrado: Principal (guitarra y guitarra eléctrica)
Já pensou em usar uma coleção de roupas do Cifra Club? Responda as perguntas abaixo e nos ajude nessa missão! →
tono: A
Riff 1 (Miguel)
G|--9--7--6--7-|
D|--9--7--7--7-|
A|--7--5--5--5-|
E|-------------|

Riff 2 (Miguel)
G|--9--7--6--4-|
D|--9--7--7--4-|
A|--7--5--5--2-|
E|-------------|

Riff 3 (Miguel)
G|--9--7-|
D|--9--7-|
A|--7--5-|
E|-------|

Riff 4 (Miguel)
G|-7-7-8-8-9-9-----|
D|-----------------|
A|-5-5-6-6-7-7-7-8-|
E|-------------5-6-|

Riff 5 (Miguel)
e|---------------------------------------------------|
B|-10-10-10-9-10-10-10-9-10-10-10-9-10-10-10---------|
G|-9--9--9--9-9--9--9--9-9--9--9--9-9--9--11-9-10-11-|
D|---------------------------------------------------|
A|-------------------------------------------7--8--9-|
E|---------------------------------------------------|

Riff 6 
(Miguel)
   C#m   D     F#m      E     C#m   D    F#m      E     C#m   D    F#m     E    D   D#   E   A  Bb
G|------------------------------------------------------------------------------7-7-8-8-9-9---------|
D|-6666--7777--11111111-9999--6666--7777-xx111111-9999--6666--7777-1111111-9999-7-7-8-8-9-9---------|
A|-4444--5555--9-9-9-9--7777--4444--5555-xx9-9-9--7777--4444--5555-9-9-9-9-7777-5-5-6-6-7-7-777-888-|
E|------------------------------------------------------------------------------------------555-666-|
(Dedeco)
    C#m  D    F#m  E    C#m  D    F#m   E    C#m  D    F#m  E   D   D#  E   A
D|-6666-7777-----------6666-7777------------6666-7777-----------7-7-8-8-9-9-----|
A|-4444-5555-4444-2222-4444-5555-xx444-2222-4444-5555-4444-2222-5-5-6-6-7-7-777-|
E|-----------2222-0000-----------xx222-0000-----------2222-0000-------------555-|

Intro (Miguel)
e|-------------------------------------------------|
b|-------------------------------------------------|
g|-------4h6--------------------6h7p6--------------|4x
d|----7---------4h6p4-7-6-----7-----------7p6-9-7--|
a|------------4-------------5---------7-7----------|
e|--5----------------------------------------------|

Intro (Dedeco)
( )( A|- C#m - D )( A|- C#m - D|- E )( A|- C#m - D|- E )

A                     C#m  D
Como é que eu posso entender
                        A Bm 
Se o que escolheu na vida foi sofrer
          D E  Riff 1
(isso bem antes da hora)
A                        C#m  D
 Se o que eu falei nunca valeu
                    A Bm 
E nunca quis nenhum conselho meu
           D E Riff 2
(não vem reclamar agora)

A       D          Bm 
 Ela mandou você cumpriu
      D     E
Aonde ja se viu?
A     D        Bm    D E Riff3
Ainda ter que aceitar

Riff 5
Só sai se ela deixar
Tem hora pra voltar
Se é assim que você quer viver
Os outros vão falar
Melhor deixar pra lá
Se não você só vai se arrepender

Dedeco
( A|- C#m - D|- E )

Miguel
e|-------------------------------|
b|-------------------------------|
g|-----6-7-6~-----6-7-9-7-6-7-6~-|
d|---7----------7----------------|2x
a|------------5------------------|
e|-5-----------------------------|

A   A/G#
 Disfarça 
F#m          E               
 Pra não deixar ninguém te ver
A   A/G#
 Sem graça
F#m        E
 Vergonha é não perceber
Riff 4   D   A     E        F#m 
          Só faz o que ela quer
    D    Bm       E        A
Tem medo de não achar outra mulher

Riff 5
Só sai se ela deixar
Tem hora pra voltar
Se é assim que você quer viver
Os outros vão falar
Melhor deixar pra lá
Se não você só vai se arrepender

Dedeco: (primeira vez toca sozinho na segunda entra o miguel)
e|------------------------------------------------------------------------------------|
B|------------------------------------------------------------------------------------|
G|---6---------------6----7---6---4---4---4----7---6---7---6---7----7---6---7---6---6-|
D|-------9---7---9------7---7---7---7---7----7---7---7---7---7----7---7---7---7---7---|2x
A|-7---7---7---7---7------------------------------------------------------------------|
E|------------------------------------------------------------------------------------|

C#m - F#m - D|- E

Miguel:
e|-----|   |---|  |------------------------|
b|-----|   |-5-|  |---5-3-2~--3-2-0--3-2-0-|
g|---9-|   |---|  |------------------------|
d|-----|16x|-2-|4x|-2----------------------|
a|-7---|   |---|  |------------------------|
e|-----|   |---|  |------------------------|

Riff 5
Só sai se ela deixar
Tem hora pra voltar
Se é assim que você quer viver
Os outros vão falar
Melhor deixar pra lá
Se não você só vai se arrepender

Miguel
e|------------------------------------------------|
b|------------------------------------------------|
g|------6h8-------------------8h9p8---------------|
d|----9-------6h8p6-9-8-----9-----------9p8-11-9--|4x
a|----------6-------------7---------9-9-----------|
e|--7---------------------------------------------|

Dedeco
   Bm  D#   E     F#
D|----8888-9999-11111111-|
A|-9--6666-7777-9-9-9-9--|2x
E|-7---------------------|

      Bm      A#        G#        F#      Bm      A#       G#         F#    A#  Bm C  Bm  Bm
G|-16161616-15151515-13131313-11111111-16161616-15151515-13131313-11111111-1515-16-17-16--16/-|
D|-16161616-15151515-13131313-11111111-16161616-15151515-13131313-11111111-1515-16-17-16--16/-|
A|-14141414-13131313-11111111-9-9-9-9--14141414-13131313-11111111-9-9-9-9--1313-14-15-14--14/-|
Composición de Dedeco / Falcon / Gesta / Miguel
Colaboración y revisión:
  • Thais Mota
  • Fernando Beltrão
42 vistas
    • ½ Tono
    • A
    • Bb
    • B
    • C
    • Db
    • D
    • Eb
    • E
    • F
    • F#
    • G
    • Ab
  • Agregar a la lista

    0 comentarios

    Ver todos los comentarios

    ¿Lograste tocar?

    0 Tocaron 0 Aún no

    ¡Graba un video tocando Pau Mandado y envíanoslo!

    00:00 / 00:00
    Outros vídeos desta música
    Repetir Calidad Automático
    Outros vídeos desta música
    00:00 / 00:00
    Automático
    OK