Cifra Club

Misirlou

Dick Dale

Cifrado: Principal (guitarra y guitarra eléctrica)
tono: C
[Verse 1]

E|------------------------------------------|
B|------------------------------------------|
G|------------------------------------------|
D|------------------------------------------|
A|------------------------------------------|
E|-12\--0-0-0-0-0-0-0-0-0-0-0-0-0-0-0-0-0-0-|

E|------------------------------------------|
B|------------------------------------------|
G|------------------------------------------|
D|------------------------------------------|
A|------------------------------------------|
E|-0-0-0-1-4-4-4-5-7-7-7-8-11-11-11--|

E|-----------------------------------------------------|
B|-----------------------------------------------------|
G|-----------------------------------------------------|
D|-----------------------------------------------------|
A|-----------------------------------------------------|
E|-1-1-1-4-4-4-5-5-5-7-7-7-7-7-7/11-8-7-7-7-7-7-7-7\1--|

E|--------------------------------------------------------|
B|--------------------------------------------------------|
G|--------------------------------------------------------|
D|--------------------------------------------------------|
A|--------------------------------------------------------|
E|-0-0-0-0-0-0-0-0-0-0-1-1-1-4-4-4-5-5-5-7-7-7-7-7-7/11-8-|

E|-------------------------------------------------------------------|
B|-------------------------------------------------------------------|
G|-------------------------------------------------------------------|
D|-------------------------------------------------------------------|
A|-------------------------------------------------------------------|
E|-7-7-7-7-7-7-7-7-7-7-7-7-8-7-8-7\5-7-5-7-5-4-1-4-4-4-4-4-4-4-4-4-4-|

E|------------------------------------------------|
B|------------------------------------------------|
G|------------------------------------------------|
D|------------------------------------------------|
A|------------------------------------------------|
E|-7-5-7-5-4-5-4-5-4-1-0-0-0~~~~~~~~~~~~~~~~~~~~~-|

[Verse 2]
E|-12\1-0-0-0-0-0-0-0-0-0-0-0-0-0-0-0-0-0-0-0-0-0-|
B|------------------------------------------------|
G|------------------------------------------------|
D|------------------------------------------------|
A|------------------------------------------------|
E|------------------------------------------------|

E|-1-1-1-4-4-4-5-5-5-7-7-7-7-7-7/11-8-7-7-7-7-7-7\1--|
B|---------------------------------------------------|
G|---------------------------------------------------|
D|---------------------------------------------------|
A|---------------------------------------------------|
E|---------------------------------------------------|

E|-0-0-0-0-0-0-0-0-0-0-1-1-1-4-4-4-5-5-5-7-7-7-7-7-7/11-8-|
B|--------------------------------------------------------|
G|--------------------------------------------------------|
D|--------------------------------------------------------|
A|--------------------------------------------------------|
E|--------------------------------------------------------|

E|-7-7-7-7-7-7-7-7-7-7-7-7-8-7-8-7\5-7-5-7-5-4-1-4-4-4-4-4-4-4-4-4-|
B|-----------------------------------------------------------------|
G|-----------------------------------------------------------------|
D|-----------------------------------------------------------------|
A|-----------------------------------------------------------------|
E|-----------------------------------------------------------------|

E|-7-5-7-5-4-5-4-5-4-1-0-0-0~~~~~~~~~~~~~~~~~~~~~-|
B|------------------------------------------------|
G|------------------------------------------------|
D|------------------------------------------------|
A|------------------------------------------------|
E|------------------------------------------------|

[Trumpet Solo]

[Solo]
E|---------------------------------------------------------|
B|---------------------------------------------------------|
G|---------------------------------------------------------|
D|---------------------------------------------------------|
A|---------------------------------------------------------|
E|-5-5-5-5-5-5-5-5-5-5-5-5-5-5-5-5-5-5-5-5-5-5-5-5-5-5-5-5-|

E|---------------------------------------------------------|
B|---------------------------------------------------------|
G|---------------------------------------------------------|
D|---------------------------------------------------------|
A|---------------------------------------------------------|
E|-5-4-5-7-7-7-7-7-7-7-7-7-7-7-7-7-7-7-7-7-7-7-7-7-7-7-7-7-|

E|-----------------------------------------------------------|
B|-----------------------------------------------------------|
G|-----------------------------------------------------------|
D|-----------------------------------------------------------|
A|-----------------------------------------------------------|
E|-7-5-7-8-8-8-8-8-8-8-8-8-8-8-8-8-8-7-8-11-11-8-11-12-12-12-|

E|-------------------------------------------|
B|-------------------------------------------|
G|-------------------------------------------|
D|-------------------------------------------|
A|-------------------------------------------|
E|-12-12-12-12-12-12-12-12-12-12-12-12-12-12-|

E|------------------------------------------------------------|
B|------------------------------------------------------------|
G|------------------------------------------------------------|
D|------------------------------------------------------------|
A|------------------------------------------------------------|
E|-13-12-13-12-10-12-10-12-10-8-7-7-7-7-7-7-7-7-7-7-7-7-7-7-7-|

E|---------------------------------------------|
B|---------------------------------------------|
G|---------------------------------------------|
D|---------------------------------------------|
A|---------------------------------------------|
E|-10-8-10-8-7-7-4-7-5-4-1-0-0-0~~~~~~~~~~~~~~-|

[Verse 2]
E|-12\1-0-0-0-0-0-0-0-0-0-0-0-0-0-0-0-0-0-0-0-0-0-|
B|------------------------------------------------|
G|------------------------------------------------|
D|------------------------------------------------|
A|------------------------------------------------|
E|------------------------------------------------|

E|-1-1-1-4-4-4-5-5-5-7-7-7-7-7-7/11-8-7-7-7-7-7-7\1--|
B|---------------------------------------------------|
G|---------------------------------------------------|
D|---------------------------------------------------|
A|---------------------------------------------------|
E|---------------------------------------------------|

E|-0-0-0-0-0-0-0-0-0-0-1-1-1-4-4-4-5-5-5-7-7-7-7-7-7/11-8-|
B|--------------------------------------------------------|
G|--------------------------------------------------------|
D|--------------------------------------------------------|
A|--------------------------------------------------------|
E|--------------------------------------------------------|

E|-7-7-7-7-7-7-7-7-7-7-7-7-8-7-8-7\5-7-5-7-5-4-1-4-4-4-4-4-4-4-4-4-|
B|-----------------------------------------------------------------|
G|-----------------------------------------------------------------|
D|-----------------------------------------------------------------|
A|-----------------------------------------------------------------|
E|-----------------------------------------------------------------|

E|-7-5-7-5-4-5-4-5-4-1-0-0-0~~~~~~~~~~~~~~~~~~~~~-|
B|------------------------------------------------|
G|------------------------------------------------|
D|------------------------------------------------|
A|------------------------------------------------|
E|------------------------------------------------|
Composición de Bob Russell / Chaim Tauber / Fred Wise / Milton Leeds / Nicholas Roubanis
Colaboración y revisión:
  • Lucas Kappaun
  • Glauco Shiroma
  • Luis Peretti
8.221 vistas
    • ½ Tono
    • A
    • Bb
    • B
    • C
    • Db
    • D
    • Eb
    • E
    • F
    • F#
    • G
    • Ab
  • Agregar a la lista

    0 comentarios

    Ver todos los comentarios

    ¿Lograste tocar?

    28 Tocaron 6 Aún no

    ¡Graba un video tocando Misirlou y envíanoslo!

    00:00 / 00:00
    Otros videos de esta canción
    Repetir Calidad Automático
    Otros videos de esta canción
    00:00 / 00:00
    Automático
    OK