Cifra Club

Penélope

Diego Torres

Tablatura: Principal (guitarra)
tono: Bb
 Gm                        Cm         F 
Penélope... con su bolso de piel marrón, 
               Bb      Eb                    Cm7    D 
y sus zapatos de tacón... y su vestido de domi-i-ingo. 
 
   Gm                              Cm       F 
Penélope... se sienta en un banco del andén, 
                           Bb        Eb                 Cm7   D 
y espera a que llegue el primer tren... meneando el abani-i-ico. 
 
 G            D                Em      D  C 
Dicen en el pueblo que un caminante paró...  
        D               G 
su reloj una tarde de primavera. 
 
G         D            Em         D  C 
Adiós amor mío no me llores volveré... 
         D                  E 
antes que de los sauces caigan las hojas. 
 
 A             F#m     C#m       C# 
Piensa en mí, volveré por ti-i-i-i. 
 
 Bm          E              A           D 
Pobre infeliz se paró tu reloj infantil  
                 Bm          C#                  F#m    F# 
una tarde de plomiza de abril cuando se fue tu amante-e-e. 

 Bm        E                    A             D 
Se marchitó en tu huerto hasta la última flor, 
                         Bm         C#          Solo 
no hy ni un sauce en la calle mayor.... para Penélope. 
 
Solo: 
 
    A           E        F#m        E               
e|-------------------------------------------------- 
B|--2-2-2-2-0-0-5~-5h7p5---------------------------- 
G|-----------------------2~-2-2-2-2-1-2-4h6~~-4h6p4- 
D|-------------------------------------------------- 
A|-------------------------------------------------- 
E|-------------------------------------------------- 

         D            E       A                        
         ----------------------------|-9------9-------|
         ----------------------------|---10-----10----|
         ---------------2~-4~-4-2-2~-|------9------9~-|
         4~-4-4-4-4-2-2--------------|----------------|
         ----------------------------|----------------|
         ----------------------------|----------------|
 
    A           E        F#m        E               
e|-------------------------------------------------- 
B|--2-2-2-2-0-0-5~-5h7p5---------------------------- 
G|-----------------------2~-2-2-2-2-1-2-4h6~~-4h6p4- 
D|-------------------------------------------------- 
A|-------------------------------------------------- 
E|-------------------------------------------------- 

        D            E       A              E         
        ----------------------------|----------------|
        ----------------------------|----------------|
        ---------------2~-4~-4-2-2~-|----------------|
        4~-4-4-4-4-2-2--------------|----------------|
        ----------------------------|----------------|
        ----------------------------|----------------|
 
   Am                         Dm      G 
Penélope... uno tras otro lo ve pasar, 
                   C          F                   Dm7   E 
mira sus caras les oye hablar... para ella son muñe-e-ecos. 
 
 A           E                 F#m      E   D 
Dicen en el pueblo que el caminante volvió, 
           E                A 
la encontró en su banco de pino verde. 
 
 A          E          F#m            E   D 
La llamó Penélope mi amante fiel, mi paz, 
       E                F# 
deja ya de tejer sueños en tu mente. 
 
 B      G#m         Ebm        Eb 
Mírame soy tu amor regresé-e-e-e. 
 
 C#m     F#                B            E 
Le sonrió con los ojos llenitos de ayer, 
               C#m          Eb                    G#m     G# 
no erá así su cara y su piel, no eres quien yo espero-o-o-o. 
 
C#m          F#               B             E 
Y se quedó-o-o con sus bolso de piel marrón,  
             C#m         Eb                  G#m  F#  C#m  Eb 
y sus zapatitos de tacón, sentada en la estació-o-o-o-on...  
                   G#m  F#  C#m   Eb  G#m 
sentada en la estació-o-o-o-on. 
Composição de Sebastiano Maggiorana
3.874 reproducciones
    • ½ Tono
    • A
    • Bb
    • B
    • C
    • Db
    • D
    • Eb
    • E
    • F
    • F#
    • G
    • Ab
  • Adicionar à lista

    0 comentarios

    Ver todos os comentários

    ¿Conseguiste tocar?

    0 Tocaram 1 Ainda não

    Grave um vídeo tocando Penélope e nos envie!

    00:00 / 00:00
    outros vídeos desta música
    repetir qualidade Automático
    Outros vídeos desta música
    00:00 / 00:00
    Automático
    OK