Cifra Club

Cotação do Dólar

Diego Valenga

Cifrado: Principal (guitarra y guitarra eléctrica)
Quer fazer aulas de música com a gente? Responda essas perguntas
e nos ajude nesse projeto! →
tono: F#
Intro:  F#                    G#m
E|-5-----5----------------------8-10--9-----8-------------|
A|-----8--5-------------------------------8--7------------|
G|----8-----7-9-7--6--5-----------------------------------|
A|--------------------------------------------------------|
E|--------------------------------------------------------|

F#                    G#m
Moeda acelerou ganhos perto do fechamento
F#                     A#m
Encontre tudo sobre investimentos
G#m                        A#m
Com o Banco Central voltando a fazer um novo leilão
D#7       D#m          C#            D#7
Investidores seguem atentos à formação

D#5             F#m
Veja a cotação do dólar
C#
Pacotes de ajuda melhoraram ânimo do mercado
D#5             F#m
Veja a cotação do dólar
A#
abre marcando instabilidade

D#7       D#m          C#            D#7
Depois da aversão ao risco da véspera.
D#7       D#m          C#            D#7
Dólar sobe frente ao euro e se mantém em festa
D#7       D#m          C#            D#7
As últimas notícias, análises, blogs, furos.
D#7       D#m          C#            D#7
Bolsas internacionais, inflação, poupança, taxa de juros.

Solo:
E|-5--5-5---------------------------8--7--7---------------|
B|------------10----9---8--8--8--8-----------------7-7-7--|
G|--------------------------------------------------------|
D|--------------------------------------------------------|
A|--------------------------------------------------------|
E|--------------------------------------------------------|

E|-5-------------------------8-10--9-------8--------------|
A|-----8--5---------------------------------7-------------|
G|----8------------5-------------------------------5---7--|
D|--------------------------------------------------------|
A|--------------------------------------------------------|
E|--------------------------------------------------------|
D#5             F#m
Veja a cotação do dólar
C#
Pacotes de ajuda melhoraram ânimo do mercado
D#5             F#m
Veja a cotação do dólar
A#
abre marcando instabilidade
Composición de João Dos Harmônicos / Renan Eduardo / Carlos
Colaboración y revisión:
  • João Barro
32 vistas
    • ½ Tono
    • A
    • Bb
    • B
    • C
    • Db
    • D
    • Eb
    • E
    • F
    • F#
    • G
    • Ab
  • Agregar a la lista

    0 comentarios

    Ver todos los comentarios

    ¿Lograste tocar?

    0 Tocaron 0 Aún no

    ¡Graba un video tocando Cotação do Dólar y envíanoslo!

    00:00 / 00:00
    Outros vídeos desta música
    Repetir Calidad Automático
    Outros vídeos desta música
    00:00 / 00:00
    Automático
    OK