Cifra Club

Aprenda

Fariamos Juntos

Diego Valenga

Tab de bajo: Principal
Intro:
G|----------7-9-7----------8-------------9-------------|
D|-----------------------------------------------------|
A|-----------------------------------------------------|
E|-----------------------------------------------------|

E9
Eu quero farinha
A7
Tu queres farinha
B
Fariamos juntos

G|-5-12----5—---------—---------8-10--9------8---------|
D|-----8--5-—------------7----7------------8--7--------|
A|-----------------------------------------------------|
E|-----------------------------------------------------|

G|------—----12----10-—---10---8-10--9-------8---------|
D|-----8--—-----12------12----------------8------------|
A|----8---------------------------------------------12-|
E|-----------------------------------------------------|


E7M
Eu quero farinha
A7M
Tu queres farinha
C#
Faríamos juntos

G|-5--5—----------------------------8--7--7------------|
D|---------12----12---------------8--7-----------------|
A|-----------------------------------------------------|
E|-----------------------------------------------------|

G|-5-12----5—---------—---------8-10--9------8---------|
D|-----8--5-—------------7----7------------8--7--------|
A|-----------------------------------------------------|
E|-----------------------------------------------------|

E9
Eu quero farinha
A7
Tu queres farinha
B
Fariamos juntos


G|----8---------------------------------------------12-|
D|-----------------------------------------------------|
A|-----------------------------------------------------|
E|-----------------------------------------------------|


G|---------12----12---------------8--7-----------------|
D|-----------------------------------------------------|
A|-----------------------------------------------------|
E|-----------------------------------------------------|

E7M
Eu quero farinha
A7M
Tu queres farinha
C#
Faríamos juntos
Composição de Evandro Donato / João Paulo Dos Harmônicos / Carlos
Colaboración y revision:
  • João Barro
24 reproducciones

0 comentarios

Ver todos os comentários

¿Conseguiste tocar?

0 Tocaram 0 Ainda não

Grave um vídeo tocando Fariamos Juntos e nos envie!

00:00 / 00:00
outros vídeos desta música
repetir qualidade Automático
Outros vídeos desta música
00:00 / 00:00
Automático
OK