Enviar cifraEntrar

Butterfly

Digimon

Acordes: Principal
reproducciones 9.659
Tono: A
Intro:  E D A (2x)
        E D A (4x)

Solo da Intro:

E|-----------------------|-----------------------|
A|---9-9h10p9---------10-|---9-9-10-9------------|
D|------------11-9-11----|------------11-9-11-7~-|
G|-----------------------|-----------------------|
B|-----------------------|-----------------------|
E|-----------------------|-----------------------|


Verso 1

E
Gokigen na tyou ni natte
G#m
Kirameku kaze ni notte
  A       C     D        E
Ima sugu kimi ni ai ni ikou


E|-----------------------------|
A|-----------------------------|
D|-----------------------------|
G|-----------------------------|
B|-----------------------------|
E|---0-3-4-0-3-4-0-0-2-0-3-0-4-|


E
Yokei na koto nante
G#m
Wasureta hou ga bashisa
   A       C       D            E
Kore ijou shareteru jikan wa nai


E|-----------------------------|
A|-----------------------------|
D|-----------------------------|
G|-----------------------------|
B|-----------------------------|
E|---0-3-4-0-3-4-0-0-2-0-3-0-4-|


Pre-Refrão:
       C#m                      G#m       A            E
Nani ga wow wow wow wow wow kono sora ni todoku no darou
       C#m                      G#m       A   B   C  D  B
Dakedo wow wow wow wow wow ashita no yote mo wakaranai

Refrão:
E            B             C#m
Mugendai na yume no ato no
      G#m               A
Nani mo nai yo naka ja
         G#m   C#m
Sou sa itoshii
   A           B
Omoi mo makesu ni naru kedo

E          B                 C#m
Stay tigati na image darake no
     G#m                A
Tayourinai tsubasa demo
      G#m     C#m    C   D     E
Kitto toberu saa     on my love.

(E D A)

Solo da Intro
Verso 2

E
Ukareta chou ni natte
G#m
ichizu na kaze ni notte
A           C      D        E
Doko mademo kimi ni ai ni yukou


E|-----------------------------|
A|-----------------------------|
D|-----------------------------|
G|-----------------------------|
B|-----------------------------|
E|---0-3-4-0-3-4-0-0-2-0-3-0-4-|


E
Aimai na kotoba tte
G#m
igai ni benri datte
A           C      D       E
Sakenderu hitto songu kikinagara


E|-----------------------------|
A|-----------------------------|
D|-----------------------------|
G|-----------------------------|
B|-----------------------------|
E|---0-3-4-0-3-4-0-0-2-0-3-0-4-|


Pre-Refrão:
      C#m                  G#m        A         E
Nani ga wow wow wow wow wow kono machi ni hibiku no darou
      C#m                  G#m        A   B  C  D  B
Dakedo wow wow wow wow wow kitai shitetemo shikata nai

Refrão:
E           B           C#m        G#m           A
Mugendai na yume no ato no yarusenai yo no naka ja
      G#m  C#m  A               B
Sou sa joushiki hazure mo waruku wa nai ka na
E            B             C#m        G#m            A
Stay shisou na imeeji wo someta gikochinai tsubasa demo
      G#m  C#m  C  D  E
Kitto toberu sa on my love

Solo:

    C          D           E            E
E|-------------------------------------------------|
A|-------------------------------------------------|
D|----------------------------------7-6-7-9--------|
G|5-4-5---------------------5-4-5-4---------7-9-10-|
B|------5-8-10-7-8-10-7-5-5------------------------|
E|-------------------------------------------------|


    C        D             E            E
E|------------------------------------------------------|
A|------------------------------------------------------|
D|------------------------------------------------------|
G|------------------------------------------------------|
B|-7-8-10-----------------------------------------------|
E|--------7-5-10-12-14-15-17b19b17-12-10-12-15-12-10-12-|  


      F#m                     G#m                     A
E|----------------------------------------------------------------------|
A|------------------------------------------------------7-----7-6---7-6-|
D|------------------------------------------------7-6-4---6-4-----4-----|
G|----------------------------------------6---6-4-----------------------|
B|------------------------------7-5-4-5-4---4---------------------------|
E|-9-10-9-7-5-9-7-5-4-7-5-4-5-4-----------------------------------------|


      A#º                          B
E|------------------------------------------------------------------------------------------------|
A|------------------------------------------------------------------------------------------------|
D|-11-12-14---------------------------------------------------------------------------------------|
G|----------11-13-14-11-13-14----14----------18---------------------------------------------------|
B|----------------------------12----12-14-17----17-19-17-19----19----------------------------19b21|
E|----------------------------------------------------------16----16-17-16-17-19-17-19-19b21-19---|


Refrão:
E           B           C#m        G#m            A
Mugendai no yume no ato no nanimo nai yo no naka ja
      G#m  C#m  A              B
Sou sa itoshii omoi mo makesou ni naru kedo
E              B           C#m        G#m              A
Stay shigachi na imeeji darake no tayorinai tsubasa demo
      G#m  C#m  C    D
Kitto toberu sa oh yeah

E           B           C#m       G#m          A
Mugendai na yume no ato no yarusenai yo no naka ja
       G#m  C#m A               B
Sou sa joushiki hazure mo waruku wa nai ka na
E              B         C#m           G#m            A
Stay shisou na imeeji wo someta gikochinai tsubasa demo
       G#m  C#m  C  D  E
Kitto toberu sa on my love

(E D A)

Solo da Intro
  • 1
  • 2
  • 3
  • 4
  • 5
  • 6
  • 7
  • 8
  • 9
  • 10
  • 11
  • 12
    Acordes para:
      Composición: Chell WatanabeColaboración y revision:

      0 comentarios

        mostrar mas comentarios

        ¿Conseguiste tocar?

        11tocaron2aún no

        ¡Grave un vídeo tocando Butterfly y envie para nosotros!

        00:00 / 00:00
        outros vídeos desta música
        repetirqualidadeautomática
        • automática
        Outro vídeos desta música
          00:00 / 00:00
          automática
          • automática
          Acordes para:guitarra
          dificuldadreproduccionescontribuciones
          cerrarplay/pause subir/bajar velocidad
            Acordes para:guitarra
            acordes
            cerrar
            OK