Cifra Club

Target - Br

Digimon

Cifrado: Principal (guitarra y guitarra eléctrica)
Selo Cifra Club: esta cifra foi revisada para atender aos critérios oficiais da nossa Equipe de Qualidade.
tono: Bb
 Intro: | Gm | % | Cm | % | (2x)
E|-----5~-6-8-5~--------8~--5~-6-8-5~--------8~--
B|--8------------8--------------------8----------
G|---7-------------6--------------------6--------
D|----7--------------5~-------------------5~-----
A|-----------------------------------------------
E|-----------------------------------------------

D5 D5

Gm           F/A         Bb              C
   Nós somos digimons, somos guerreiros digitais
Gm           F/A         Bb          Bb4 Bb Bb4 Bb
   Coragem e união, nós somos demais

Cm           F      Dm         Gm
Enquanto houver em nossos corações
   G#                               Gm
A força do sonho, a força do amor, nós vamos vencer

         Gm     F      Bb  Bb4 Bb
Seremos sempre os digimons
         Cm       Bb/D  Eb  Eb4 Eb
Seremos sempre os campeões
         Gm     F      Bb  Bb4 Bb
Temos a força para lutar
            Cm    Bb/D  Eb
Dentro dos nossos corações
Seremos sempre os digimons

 | Gm | % | Cm | % |
E|-6-5---6-5-----5~-6-8-5~--------8~--5~-
B|-----6-----6-------------8-------------
G|-------------7-------------6-----------
D|-----------------------------5~--------
A|---------------------------------------
E|---------------------------------------

Gm Gm Gm~~
Otros videos de esta canción
    5.361 exhibiciones
      • ½ Tono
      • A
      • Bb
      • B
      • C
      • Db
      • D
      • Eb
      • E
      • F
      • F#
      • G
      • Ab
    • Agregar a la lista

    Afinación de cifrado

    Afinador online

      OK