Cifra Club

Tema de Abertura

Digimon

Cifrado: Principal (guitarra y guitarra eléctrica)
Selo Cifra Club: esta cifra foi revisada para atender aos critérios oficiais da nossa Equipe de Qualidade.
tono: Bb
E |----------------------------------------------------------|
B |3-3-3-1--------4-3-1-----1-----1---3-3-3-1----------------|
G |---------------------3-3---0-3--------------------0-3---0-|
D |--------3-3--3-----------------------------3-3--3-----3---|
A |----------------------------------------------------------|
E |----------------------------------------------------------|

E |-----------------------------------------1----------------|
B |3-3-3-1--------4-3-1-----1-----1---3-3-3---3-1-1-3--------|
G |---------------------3-3---0-3----------------------3-0-0-|
D |--------3-3--3--------------------------------------------|
A |----------------------------------------------------------|
E |----------------------------------------------------------|

E |-------------------------1-----------------1------------1----------------|
B |------3-1-1--------1-1-1-----------1-4-3-1---4--4-3-4-3---4---4-3-4-3-4-3|
G |0-0-0--------3-2-3---------3-3---3---------------------------------------|
D |-------------------------------------------------------------------------|
A |-------------------------------------------------------------------------|
E |-------------------------------------------------------------------------|

E |--1---3-3-1----------------------------1---3-3-1--------------------------3-|
B |3---3-------3-1-3------3-1-1-1-------3---3-------3-1-3------3-1---1---1-3---|
G |-------------------3-3---------3-0----------------------3-3-----3---3-------|2X
D |----------------------------------------------------------------------------|
A |----------------------------------------------------------------------------|
E |----------------------------------------------------------------------------|

E |-3-1---3-1---1-3-3|
B |-----3-----3------|
G |------------------|
D |------------------|
A |------------------|
E |------------------|

Otros videos de esta canción
    29.885 exhibiciones
      • ½ Tono
      • A
      • Bb
      • B
      • C
      • Db
      • D
      • Eb
      • E
      • F
      • F#
      • G
      • Ab
    • Agregar a la lista

    Afinación de cifrado

    Afinador online

      OK