Cifra Club

12 Horas

Dilsinho

Tablatura: Principal (guitarra)
reproducciones 94
Tono: G
[Intro] Em7  G  A
        Em7  G  A

[Riff]

   A
E|---------5------------------------------------------|
B|-3p2------------------------------------------------|
G|------2---------------------------------------------|
D|----------------------------------------------------|
A|----------------------------------------------------|
E|------------3p2-0-----------------------------------|

[Primeira Parte]

   Em         C9         G         A9           
E|---------0----------3----------3----------0---------|
B|-----0----------3----------3---------0----0---------|
G|---0---0------0---0------0---0-----2---2--2---------|
D|------------------------------------------2---------|
A|------------3--------------------0--------0---------|
E|-0---------------------3---------------------3p2-0--|

   Em         C9         G          A9           
E|---------0----------3----------3--0-----------------|
B|-----0----------3----------3------0----0------------|
G|---0---0------0---0------0---0----2--2---2----------|
D|----------------------------------2-----------------|
A|------------3---------------------0-----------------|
E|-0---------------------3----------------------------|

Em
  Já fazia um tempo que não aparecia
C9
  Já fazia um tempo que não procurava
G                                A9
 Já fazia um tempo que você não tinha
Motivos pra ser infiel

Em
  Ontem tava eu vendo tv em casa
C9
  Chega uma mensagem que eu não esperava
G                              A9
 Com uma proposta quase irrecusável
Passar a noite no motel

[Pré-Refrão]

   Am7         Em        D/F#    G           A
E|----------3----------0------------------3--0--------|
B|-1----1----------0---------0h3p0----0------2----2---|
G|-0--0---0------0---0---0h2--------0---0----2--2---2-|
D|-2-----------------------------------------2--------|
A|-0-----------------------------------------0--------|
E|-------------0-----------------3--------------------|

   Am7         Em        D/F#    G           D
E|----------0----------0------------------3-----------|
B|-1----1----------0---------0h3p0----0------3--------|
G|-0--0---0------0---0---0h2--------0---0----2--------|
D|-2-----------------------------------------0--------|
A|-0--------------------------------------------------|
E|-------------0-----------------3--------------------|

Am7                                     Em
  Eu me arrumei e te encontrei naquele posto
                  D/F#            G
Você no canto, cabelo cobrindo o rosto
                                    A
Me deu um beijo e eu senti o mesmo gosto
                         Am7
De quem tocou os pés no céu
                                 Em
Dai pra frente eu gravei cada segundo
Nós dois no quarto
         D/F#         G
O rádio bem baixo no fundo
                              D
Fazendo serenata pra gente se amar

[Refrão]

         Em7
Naquela cama
                              G
Deitei com o coração desprevenido
   G/B                         D
Jurei que te amava ao pé do ouvido
                             A7
Sabendo que você só estava ali pra me usar

           Em7
Que não me ama
                            G
Depois das doze horas você some
   G/B                           D
E salva o meu contato com outro nome
                            A7
Acima de suspeitas pra ninguém desconfiar

( Em7  G  D  A )

[Primeira Parte]

Em
  Já fazia um tempo que não aparecia
C9
  Já fazia um tempo que não procurava
G                                A9
 Já fazia um tempo que você não tinha
Motivos pra ser infiel

Em
  Ontem tava eu vendo tv em casa
C9
  Chega uma mensagem que eu não esperava
G                              A9
 Com uma proposta quase irrecusável
Passar a noite no motel

[Pré-Refrão]

Am7                                     Em
  Eu me arrumei e te encontrei naquele posto
                  D/F#            G
Você no canto, cabelo cobrindo o rosto
                                    A
Me deu um beijo e eu senti o mesmo gosto
                         Am7
De quem tocou os pés no céu
                                 Em
Dai pra frente eu gravei cada segundo
Nós dois no quarto
         D/F#         G
O rádio bem baixo no fundo
                              D
Fazendo serenata pra gente se amar

[Refrão]

         Em7
Naquela cama
                              G
Deitei com o coração desprevenido
   G/B                         D
Jurei que te amava ao pé do ouvido
                             A7
Sabendo que você só estava ali pra me usar

           Em7
Que não me ama
                            G
Depois das doze horas você some
   G/B                           D
E salva o meu contato com outro nome
                            A7
Acima de suspeitas pra ninguém desconfiar

         Em7
Naquela cama
                              G
Deitei com o coração desprevenido
   G/B                         D
Jurei que te amava ao pé do ouvido
                             A7
Sabendo que você só estava ali pra me usar

           Em7
Que não me ama
                            G
Depois das doze horas você some
   G/B                           D
E salva o meu contato com outro nome
                            A7
Acima de suspeitas pra ninguém desconfiar

( Em7  G  A )
( Em7  G  D  A )
Acordes para:
    Compositor: Pedro Felipe / Thiago Soares Colaboración y revision:

    0 comentarios

    mostrar más comentarios

    ¿Conseguiste tocar?

    12 tocaron 9 aún no

    ¡Graba un vídeo tocando 12 Horas y envianoslo!

    00:00 / 00:00
    outros vídeos desta música
    repetir qualidade Automático
    Outros vídeos desta música
    00:00 / 00:00
    Automático
    OK