Cifra Club

Tremor

Dimitri Vegas

Cifrado: Principal (guitarra y guitarra eléctrica)
tono: D
Intro:
E|---------7-7-7-(X4) 5-5-5- (X4) 4-4-4- (X4) 3-3-3- (X4)
B|-------------------------------------------------------------------
G|-------------------------------------------------------------------
D|-------------------------------------------------------------------
A|-------------------------------------------------------------------
E|-------------------------------------------------------------------

Primeira parte:
E|-------------------------------------------------------------------
B|-------------------------------------------------------------------
G|-------------------------------------------------------------------
D|------7-6-5-4--4-6-7-4-16-------------------------------------------
A|-------------------------------------------------------------------
E|-------------------------------------------------------------------

E|-------------------------------------------------------------------
B|-------------------------------------------------------------------
G|-------------------------------------------------------------------
D|------4-2----------------------------------------------------------
A|----------4-2--2-4-2-----------------------------------------------
E|---------------------5-2-------------------------------------------

Segunda parte:
E|-------------------------------------------------------------------
B|-------------------------------------------------------------------
G|-------------------------------------------------------------------
D|------7-6-5-4-4-6-7-4-16-------------------------------------------
A|-------------------------------------------------------------------
E|-------------------------------------------------------------------

E|-------------------------------------------------------------------
B|-------------------------------------------------------------------
G|-------------------------------------------------------------------
D|------4-2------12-11-9-7-4-----------------------------------------
A|----------4-2------------------------------------------------------
E|-------------------------------------------------------------------
00:00 / 00:00
Otros videos de esta canción
Repetir
Otros videos de esta canción
Composición de Dimitri Vegas & Like Mike f.t Martin Garrix
Colaboración y revisión:
  • Alex Luis
  • Allef Rodrigues
1.023 vistas
    • ½ Tono
    • A
    • Bb
    • B
    • C
    • Db
    • D
    • Eb
    • E
    • F
    • F#
    • G
    • Ab
  • Agregar a la lista

    0 comentarios

    Ver todos los comentarios

    ¿Lograste tocar?

    4 Tocaron 2 Aún no

    ¡Graba un video tocando Tremor y envíanoslo!

    00:00 / 00:00
    OK