Cifra Club

Burn In Hell

Dimmu Borgir

Cifrado: Principal (guitarra y guitarra eléctrica)
Selo Cifra Club: esta cifra foi revisada para atender aos critérios oficiais da nossa Equipe de Qualidade.
tono: D
Intro:

| Guitar 1
|-------|-----------------------------|---------------------------| 
|-------|-----------------------------|---------------------------| 
|-------|-----------------------------|---------------------------| 
|-------|-----------7-5---5-7-7-------|----------7-5---5-7-7------| 
|-------|---2--2-2--5-3---3-5-5-5-4---|--2--2-2--5-3---3-5-5--5-4-| 
|-------|---0--0-0--------------3-2---|--0--0-0---------------3-2-| 
|
| Guitar 2                                      
|-------|-----------------------------|---------------------------| 
|-------|-----------------------------|-----------------------8-7-| 
|-------|-----------------------------|---------------------------| 
|-------|-----------------------------|---------------------------|
|-------|-----------------------------|---------------------------|
|-------|-----------------------------|---------------------------|
|
| Guitar 1
|------------------------------------| 
|------------------------------------| 
|------------------------------------| 
|--------------7--5---5--7--7--------| 
|---2---2--2---5--3---3--5--5--5-4---| 
|---0---0--0-------------------3-2---| 
|
| Guitar 2               
|------------------------------------|
|---8~--12-10-12-13-12-13-15~-15-13\-|
|------------------------------------|
|------------------------------------| 
|------------------------------------| 
|------------------------------------| 
|
| Guitar 1
|--------------------------------------------------------| 
|--------------------------------------------------------| 
|--------------------------------------------------------| 
|------------------7----5------5----7---7----------------| 
|---2------2----2--5----3------3----5---5---5----4-------| 
|---0------0----0---------------------------3----2-------| 
| 
| Guitar 2
|----------15-14-15--15-14-15-17-15-17-19--19-17~--15-14-| 
|-17-16-17-----------------------------------------------| 
|--------------------------------------------------------| 
|--------------------------------------------------------| 
|--------------------------------------------------------| 
|--------------------------------------------------------| 
|
| Guitar 1
|----------------------------|----------------------| 
|----------------------------|----------------------| 
|----------------------------|----------------------| 
|----------------------------|----------------------| 
|---2--2-2---2--2-2---5-4----|-2--2-2---2--2-2--5-4-| 
|---0--0-0---0--0-0---3-2----|-0--0-0---0--0-0--3-2-| 
|
| Guitar 2
|----------------------------|----------------------|
|--17~~~---------------------|----------------------|
|----------------------------|----------------------|
|----------------------------|----------------------|
|----------------------------|----------------------|
|--*-------------------------|-*--------------------|

* Me parece que há um órgão ou piano fazendo um acorde de Mi maior ao fundo.
Se houver três guitarras, a terceira, se for acústica, pode tocar o seguinte acorde, que ficará bem parecido:
e-------
B-------
G-------    deixar prolongar o som...
D-------
A--7...-
E--0...-

Durante essa primeira parte me parece que apenas a guitarra 1 toca. 
A guitarra 2 só entrará no fim do verso.

| Guitar 1
|----------------------------------|------------------------------------| 
|---*------------------------------|------------------------------------| 
|----------------------------------|------------------------------------| 
|----------------------------------|------------------------------------| 
|---2---2--2----2---2--2---5--4----|---2---2--2----2---2--2---2—-4------| 
|---0---0--0----0---0--0---3--2----|---0---0--0----0---0--0---0--2------| 
(Welcome to the abandoned land...       Come on in child take my hand...)

|Guitar 1
|----------------------------------|------------------------------------| 
|----------------------------------|------------------------------------| 
|----------------------------------|------------------------------------| 
|----------------------------------|------------------------------------| 
|---5---5--5----2---2--2---2--4----|---5---5--5----2---2--2---2--4------| 
|---3---3--3----0---0--0---0--2----|---3---3--3----0---0--0---0--2------| 
(Here there’s no work or play...        only one bill to pay...)

|Guitar 1
|-----------------------------------------|------------------------| 
|-----------------------------------------|------------------------| 
|-----------------------------------------|------------------------| 
|-----------------------------------------|------------------------| 
|------5----5---5----2----2---2----2---4--|--5...----4...----3...--| 
|------3----3---3----0----0---0----0---2--|--3...----2...----1...--| 
|
|Guitar 2 ( as notas entre "()" são opcionais) 
|-----------------------------------------|------------------------|
|-----------------------------------------|-(8)..---(7)..---(6)..--|
|-----------------------------------------|--7...----6...----5...--|
|-----------------------------------------|--5...----4...----3...--|
|-----------------------------------------|------------------------|
|-----------------------------------------|------------------------|
(There’s just five words to say...as you go down... down... down...)

(HEHEHEHEHE!!!)

(You’re gonna burn in hell!!!!)

                 |-----------------------------|---------------------------|
                 |-----------------------------|---------------------------|
                 |-----------------------------|---------------------------|
                 |---4------------5------------|-4------------5------------|
                 |---2-2-2-2--2-2-3-2-2-2--2-2-|-2-2-2-2--2-2-3-2-2-2--2-2-|
                 |-----0-0-0--0-0---0-0-0--0-0-|---0-0-0--0-0---0-0-0--0-0-|
                     (Oh! Burn in Hell!!!!)



|------------------------------------------------------------|
|------------------------------------------------------------|
|------------------------------------------------------------|
|------------------------------------------------------------|
|-2...-------------------------------------------------------|
|-0...----------------------3-----2-----0-----2---3------2---|
(You can’t believe all the things I’ve done wrong in my life!)

 


|---------------------------| 
|---------------------------| 
|---------------------------| 
|-4------------5------------| 
|-2-2-2-2--2-2-3-2-2-2--2-2-| 
|---0-0-0--0-0---0-0-0--0-0-| 
 

|-------------------------------------------------------|
|-------------------------------------------------------|
|-------------------------------------------------------|
|---------------------------9----7----5-9----7------5---|
|-2...----------------------7----5----3-7----5------3---|
|-0...--------------------------------------------------|
(Without even trying, I’ve lived on the edge of a knife!)


|---------------------------|
|---------------------------|
|---------------------------|
|-4------------5------------|
|-2-2-2-2--2-2-3-2-2-2--2-2-|
|---0-0-0--0-0---0-0-0--0-0-|

|----------------------------------------------------------------|
|----------------------------------------------------------------|
|-----(2)---------------------------(2)---------------------0----|
|------2...--------------------------2...-----------------0---2--|
|------0...--------------------------0...---------------2--------|
|----------------------------------------------------------------|
(Well, I’ve played with fire, but I don’t want to get myself... 


  |-------------------|-------------|
  |-------------------|-------------|
  |-------------0-----|-------------|
  |-----------0---2---|-------------|
  |-2-2-2-2-2---------|-2-2-2-2---2-|
  |-0-0-0-0-----------|-0-0-0-0---0-|
...burning!!!)


|----------------------------------------------------------------|
|----------------------------------------------------------------|
|--------(2)-------------------------(2)-------------------------|
|---------2...------------------------2...-----------------------|
|---------0...------------------------0...-----------------------|
|----------------------------------------------------------------|
(To right know self be true (?), so I think that is time for a...
 

-----------------------------------|-------------------|
-----------------------------------|-------------------|
-----5-4-2-4-2-----2---------------|-5-4-2-4-----------|
---------------5-4---5-4-2-5-4-----|---------5-4-2-----|
-------------------------------4-2-|---------------2---|
-----------------------------------|-------------------|
...change!!!!!)
 
(Before I burn in hell!!!!!)                         
  
              |-----------------------------|----------------------|
              |-----------------------------|----------------------|
              |-----------------------------|----------------------|
              |---4------------5------------|-4----------------4---|
              |---2-2-2-2--2-2-3-2-2-2--2-2-|-2-2-2-2--2-2-4---2---|
              |-----0-0-0--0-0---0-0-0--0-0-|---0-0-0--0-0-2-------|
      (Oh! Burn in Hell!!!!)
 
|---------------------------------------------------------|
|---------------------------------------------------------|
|---------------------------------------------------------|
|---------------------------------------------------------|
|-2...----------------------------------------------------|
|-0...----------------------3-----2-----0---2---3------2--|
(Take a good look in your heart, tell me: what do you see?)

|---------------------------| 
|---------------------------| 
|---------------------------| 
|-4------------5------------|
|-2-2-2-2--2-2-3-2-2-2--2-2-|
|---0-0-0--0-0---0-0-0--0-0-|
 

|-----------------------------------------------------------|
|-----------------------------------------------------------|
|-----------------------------------------------------------|
|------------------------------------9----7---5---9--7----5-|
|-------2...-------------------------7----5---3---7--5----3-|
|-------0...------------------------------------------------|
(It’s black and it’s dark, now it’s that how you want to be)


|---------------------------|
|---------------------------|
|---------------------------|
|-4------------5------------|
|-2-2-2-2--2-2-3-2-2-2--2-2-|
|---0-0-0--0-0---0-0-0--0-0-|

|------------------------------------------------------|
|------------------------------------------------------|
|(2)----------------------(2)---------------------0----|
|-2...---------------------2...-----------------0---2--|
|-0...---------------------0...---------------2--------|
|------------------------------------------------------|
(It’s up to you, what you do will decide your own...


  |-------------------|-------------|
  |-------------------|-------------|
  |-------------0-----|-------------|
  |-----------0---2---|-------------|
  |-2-2-2-2-2---------|-2-2-2-2---2-|
  |-0-0-0-0-----------|-0-0-0-0---0-|
...fate!!!)


|-------------------------------------------------------|
|-------------------------------------------------------|
|-(2)--------------------------(2)----------------------|
|--2...-------------------------2...--------------------|
|--0...-------------------------0...--------------------|
|-------------------------------------------------------|
 (Make your choice now, 'cos tomorrow may be far too...


----------------------------------|-------------------|
----------------------------------|-------------------|
----5-4-2-4-2-----2---------------|-5-4-2-4-----------|
--------------5-4---5-4-2-5-4-----|---------5-4-2-----|
------------------------------4-2-|---------------2---|
----------------------------------|-------------------|
...late!!!!!)

(And then you’ll burn in hell!!!!!!)                     

REFRÃO                     
|--------------------------------------------------------------------------|
|--------------------------------------------------------------------------|
|--------------------------------------------------------------------------|
|--4----------------------5----------------------4-----------------------4-|
|--2--2--2--2---2--2------3--2--2--2---2--2------2--2--2--2---2--2---4---2-|
|-----0--0--0---0--0---------0--0--0---0--0---------0--0--0---0--0---2-----|
(Hear no evil, don’t you see no evil, don’t you lay no evil down on me...)

(You gonna burn in hell!!) 

|-------------------------------------------------------------------------------|
|-------------------------------------------------------------------------------|
|-------------------------------------------------------------------------------|
|--4-----------------------5-----------------------4-----------------------4----|
|--2--2--2--2---2--2-------3--2--2--2---2--2-------2--2--2--2---2--2---4---2----|
|-----0--0--0---0--0----------0--0--0---0--0----------0--0--0---0--0---2--------|
(Speak no evil, don’t you think no evil, don’t you play with evil 'cos I’m free...)

Solo: 

|Guitar 1
|-------------------------------|---------------------------|
|-------------------------------|---------------------------|
|-------------------------------|---------------------------|
|-------------------------------|-4------------5------------|
|-2...--------------------------|-2-2-2-2--2-2-3-2-2-2--2-2-|
|-0...-------------3-2-0-2-3-2--|---0-0-0--0-0---0-0-0--0-0-|
|
|Guitar 2                        (very fast...)           x8 
|-------------------------------|--14-12-10-----------------|
|-12-10-8-10-8----8-------------|---------------------------|
|--------------11---11-9-11-9-7-|-*-----------------------*-|
|-------------------------------|-*-----------------------*-|
|-------------------------------|---------------------------|
|-------------------------------|---------------------------|
|
|Guitar 1
|-------------------------------------------|
|-------------------------------------------|
|-------------------------------------------|
|--------------------9--7--5--9--7--5-------|
|-2...---------------7--5--3--7--5--3-------|
|-0...--------------------------------------|
|
|Guitar 2 
|-17-15-12-17-15-12-------------------------|
|-------------------17-15-12-17-15-12-------|
|-------------------------------------------|
|-------------------------------------------| 
|-------------------------------------------| 
|-------------------------------------------| 
|
|Guitar 1
|---------------------------------------|
|---------------------------------------|
|---------------------------------------|
|-4------------5------------------------|
|-2-2-2-2--2-2-3-2-2-2--2-2-------------|
|---0-0-0--0-0---0-0-0--0-0-------------|
|
|Guitar 2 
|---------------------------------------| 
|---------------------------------------| 
|-16-14-12-14-14-12-14-16-14-12-9-9-7-9-| 
|---------------------------------------| 
|---------------------------------------| 
|---------------------------------------| 
|
|Guitar 1 
|------------------------------------------------------|
|------------------------------------------------------|
|----------------------0---------------0---------------|
|-2...--2...---------0---2-----------0---2-------------|
|-0...--0...-------2-------2-2-2-2-2-------2-2-2-2-2---|
|--------------------------0-0-0-0---------0-0-0-0-0---|
|
|Guitar2 
|------------15-17-17|---------------------------------| 
|-17~--19~-----------|-10-10-8-10-10---10-10-8---------| 
|--------------------|-------------------------7-9-----| 
|--------------------|---------------------------------| 
|--------------------|---------------------------------| 
|--------------------|---------------------------------| 
| 
|Guitar 1 
|------------|----------------------|
|------------|----------------------|
|------------|----------------------|
|-2...-------|-2...-----------------|
|-0...-------|-0...-----------------|
|------------|----------------------|
|
|Guitar 2
|------------|----------------------| 
|-10-10-8-10-|-8-10-10-8-10-10-8-10/| 
|------------|----------------------| 
|------------|----------------------| 
|------------|----------------------| 
|------------|----------------------| 
| 
|Guitar 1
|-------------------------------|---------------------| 
|-------------------------------|---------------------| 
|-5-4-2-4-2-----2---------------|-5-4-2-4-------------| 
|-----------5-4---5-4-2-5-4-----|---------5-4-2-------| 
|---------------------------4-2-|---------------2-----| 
|-------------------------------|---------------------| 
| 
|Guitar 2
|-------------------------------|---------------------| 
|--12~~~~-----------------------|/17~~~~~-------------| 
|-------------------------------|---------------------| 
|-------------------------------|---------------------| 
|-------------------------------|---------------------| 
|-------------------------------|---------------------| 
 
REFRÃO
Na primeira vez, eu acho que fica só apenas o baixo e a bateria.
Acho que uma opção legal de se tocar o baixo nesse final da música é fazendo as seguintes notas. O efeito fica muito massa (a guitarra 1 pode fazer também).
G--------------------------------------------------------------
D--------------------------------------------------------------
A—3p2...---------2h3...---------3p2...-----------------3p2-2-2-
E-----0-0-0—-0-0-----0-0-0--0-0-----0-0-0--0-0—3p2-2-2---------

(Hear no evil, don’t you see no evil, don’t you lay no evil down on me...)
(You gonna burn in hell!!)
(Speak no evil, don’t you think no evil, don’t you play with evil 'cos I’m free...)
(You gonna burn in hell!!)
(Hear no evil, don’t you see no evil, don’t you lay no evil down on me...)
(You gonna burn in hell!!)
(Speak no evil, don’t you think no evil, don’t you play with evil 'cos I’m...

|Guitar 1 'n Guitar 2
|------------------------------------------------|
|------------------------------------------------|
|------------------------------------------------|
|-------------------------------------------4----|
|-----------------------------------------4-2----|
|-----------------------------------------2------|
     ...free!!!!)


|Guitar 1 'n Guitar 2 play until the end, while the chorus continues...
|------------------------------------------------|
|------------------------------------------------|
|------------------------------------------------| (6x)
|----4-----------5-----------4--------------4----|
|----2-2-2-2-2-2-3-2-2-2-2-2-2-2-2-2-2-2--4-2----|
|------0-0-0-0-0---0-0-0-0-0---0-0-0-0-0--2------|

O refrão no final se repete 3 vezes.
00:00 / 00:00
Otros videos de esta canción
Repetir
Otros videos de esta canción
12.423 exhibiciones
    • ½ Tono
    • A
    • Bb
    • B
    • C
    • Db
    • D
    • Eb
    • E
    • F
    • F#
    • G
    • Ab
  • Agregar a la lista

Afinación de cifrado

Afinador online

    00:00 / 00:00
    OK