Cifra Club

In death's embrace

Dimmu Borgir

Cifrado: Principal (guitarra y guitarra eléctrica)
Selo Cifra Club: esta cifra foi revisada para atender aos critérios oficiais da nossa Equipe de Qualidade.
tono: C
RIFF A
  1               2               3  4    1     2
E|-----------------------------------------||------------||
B|-----------------------------------------||------------||
G|o---------------------------------------o||o-------7--o||
D|o-----------------------------------12--o||o-------7--o||
A|------------------------------------10---||--5-5-5-5---||
E|--0-0-0-0-0-0-0-0-0-0-0-0-0-0-0-0---10---||------------||
    [PM............................]            [PM.]
  1     2   3  4
  ----------------|
  ----------------|
  ----------------|
  ------7---5--4--|
  ------7---5--4--|
  5-5-5-5---3--2--|
  [PM.]
RIFF B
   A   B
E|---|---|--------------------|
B|---|---|-First play A for --|
G|-2-|---|-8 counts and then--|
D|-2-|-3-|-B for 8 counts-----|
A|-0-|-3-|-then start over----|
E|---|-1-|--------------------|

RIFF C
  1     2         3     4          1     2         3     4 
E|------------------------------|--------------------------|
B|------------------------------|--------------------------|
G|----------------7---7-7---7-7-|--------------------------|
D|3---3-3---3-3---7---7-7---7-7-|--7---7-7---7-----7---7-7-|
A|3---3-3---3-3---5---5-5---5-5-|--7---7-7---7-----7---7-7-|
E|1---1-1---1-1-----------------|--5---5-5---5-----5---5-5-|



RIFF C1
  1    2       3   4       1    2     3   4  
E|------------------------|-----------------|
B|------------------------|-----------------|
G|------------------------|-----------------|
D|7----7-7-7h8p7---7-7-7h8p7--7-7-----7-7-7-|
A|------------------------|--------7--------|
E|------------------------|-----------------|
      [PM]        [PM]
RIFF D
  1/2   3  4
E|------------|
B|------------|
G|------7-----|
D|5-----7--3--|
A|5-----5--3--|
E|3--------1--|

RIFF E
  1    2     3    4                    1      2        3      4
E|----------------------|-------------|--------------------------------|
B|----------------------|-------------|--------------------------------|
G|9--9-9-9-9-9--9-9-9-9-|<=Two times=>|12--12-12-12-12-12--12-12-12-12-|
D|9--9-9-9-9-9--9-9-9-9-|-------------|12--12-12-12-12-12--12-12-12-12-|
A|7--7-7-7-7-7--7-7-7-7-|-------------|10--10-10-10-10-10--10-10-10-10-|
E|----------------------|-------------|--------------------------------|


How to play the song:

Intro : RIFF A  10 times

Then Shagrath sings
RIFF B  6 times

RIFF C  8 times
After 4 times RIFF C you can play RIFF C1 4 times

Now only keyboard sound

RIFF D  14 times
Shagrath sings again

RIFF C  6 times
After 4 times RIFF C you can play RIFF C1 2 times

RIFF B 7 times with a speed-up
Shagrath sings again

RIFF E 10 times
Shagrath sings and if he stops there is a solo 
The solo is i think in E so try to make your own solo!!

RIFF A 6 times
Shagrath sings again
Otros videos de esta canción
    2.560 exhibiciones
      • ½ Tono
      • A
      • Bb
      • B
      • C
      • Db
      • D
      • Eb
      • E
      • F
      • F#
      • G
      • Ab
    • Agregar a la lista

    Afinación de cifrado

    Afinador online

      OK