Cifra Club

the wanderer

Dion

Cifrado: Principal (guitarra y guitarra eléctrica)
tono: E
 Intro: E
D|------------------------------------------------------|
A|------------------------------------------------------|
F|----1-------1-------1-------1-------------------------|
C|----2-------2-------2-------2-------------------------|
G|----2-------2-------2-------2-------------------------|
D|-0--0----0--0----0--0----0--0-------------------------|
  
E
I'm the type of guy who never settles down
 
Where pretty girls are well, you'll know that I'm around 
  A
I kiss 'em and I love 'em 'cause to me they're all the same 
  E
I hug 'em and I squeeze 'em, they don't even know my name 
                 B               A
They call me the Wanderer, yeah, Wanderer 
       E
I roam round and round and round and round 

E
There's Flo on my left and there's Mary on my right 

And Janie is the girl that I'll be with tonight 
A
And when she asks me which one I love the best 
E
I tear open my shirt and show Rosie on my chest 
               B               A
'Cause I'm the Wanderer, yeah, Wanderer 
       E
I roam round and round and round and round 

Ponte: 
        B                 B7
Well, I roam from town to town 
B
Live life without a care 

I'm as happy as a clown 
       C#                       B7
With my 2 fists of iron but I'm goin' nowhere 
 
E
I'm the type of guy that likes to roam around 

I'm never in one place I roam from town to town 
A
And when I find myself a-fallin' for some girl 
E
I hop right into that car of mine and drive around the world 
               B               A
'Cause I'm the Wanderer, yeah, Wanderer 
E
I roam round and round and round and round

Solo:
D|-7--7-7--7-9-7--7---------9--9-9-7--7------|
A|---------------9-9-5---------------9-9-5---|
F|-------------------------------------------|
C|-------------------------------------------|
G|-------------------------------------------|
D|-------------------------------------------|

D|------------------------------------------------------------------------------|
A|--5-7^--5-7--5-7^^----5-9~~----9-9-9^^-7---7-7-7^^-5--------------------------|
F|--------------------------------------------------------6-6-6^^-4------1------|
C|-----------------------------------------------------------------------2------|
G|-----------------------------------------------------------------------2------|
D|--------------------------------------------------------------------0--0------|

E
I'm the type of guy that likes to roam around 

I'm never in one place; I roam from town to town 
A
And when I find myself a-fallin' for some girl 
E
I hop right into that car of mine and drive around the world 
               B               A
'Cause I'm the Wanderer, yeah, Wanderer 
E
I roam round and round and round and round
               B               A
'Cause I'm the Wanderer, yeah, Wanderer 
E
I roam round and round and round and round
Composición de Ernie Maresca
Colaboración y revisión:
  • Pedro Henrique
165 vistas
    • ½ Tono
    • A
    • Bb
    • B
    • C
    • Db
    • D
    • Eb
    • E
    • F
    • F#
    • G
    • Ab
  • Agregar a la lista

    0 comentarios

    Ver todos los comentarios

    ¿Lograste tocar?

    1 Tocaron 0 Aún no

    ¡Graba un video tocando the wanderer y envíanoslo!

    00:00 / 00:00
    Outros vídeos desta música
    Repetir Calidad Automático
    Outros vídeos desta música
    00:00 / 00:00
    Automático
    OK