Cifra Club

Sultans of Swing

Dire Straits

Cifrado: Principal (guitarra y guitarra eléctrica)
Selo Cifra Club: esta cifra foi revisada para atender aos critérios oficiais da nossa Equipe de Qualidade.
tono: Dm
[Intro] Dm

E|-----------------------------------------------------|
B|-------------------------------6---------------------|
G|---5---5---5h7~--------7~--------7~------------------|
D|-X---X---X---------5/7-------7-----------------------|
A|-----------------------------------------------------|
E|-----------------------------------------------------|

E|-----5--8--5-----------------------------------------|
B|---6----------6~----5h6p5----------------------------|
G|-7------------------------7~-------------------------|
D|-----------------------------------------------------|
A|-----------------------------------------------------|
E|-----------------------------------------------------|

[Primeira Parte] 

            Dm
You get a shiver in the dark
      C              Bb
It's raining in the park
     A       Dm
But meantime

South of the river  
         C            Bb        A  
You stop and you hold    everything

F
  A band is blowin' Dixie 
        C        Bb
Double four time

You feel alright 
                          Dm  Bb  C  
When you hear that music ring

(Frases da Primeira Parte)

E|-----------------------------------------------------|
B|-----------------------------------------------------|
G|-4b6rb6\---------------------------------------------|
D|-----------------------------------------------------|
A|-----------------------------------------------------|
E|-----------------------------------------------------|

E|-----5----5----5-------------------------------------|
B|-----------------------------------------------------|
G|-2/6----6----6---------------------------------------|
D|-----------------------------------------------------|
A|-----------------------------------------------------|
E|-----------------------------------------------------|

E|-5-5-5-----------------------------------------------|
B|-6-6-6-----------------------------------------------|
G|-5-5-5-----------------------------------------------|
D|-7-7-7-----------------------------------------------|
A|-8-8-8-----------------------------------------------|
E|-----------------------------------------------------|

E|-----------------------------------------------------|
B|-5--x-5----x-6p5-6p5--x-3----------------------------|
G|-5--x-5----x-5---5----x-3----------------------------|
D|-5--x-5----x-7p5-7p5--x-3----------------------------|
A|-----------------------------------------------------|
E|-----------------------------------------------------|

E|-----------------------------------------------------|
B|---------6-------------------------------------------|
G|-----7-----7~\---------------------------------------|
D|-5/7---7---------------------------------------------|
A|-----------------------------------------------------|
E|-----------------------------------------------------|

E|-----------------------------------------------------|
B|-x-3-x-6-x---3/5---5---------------------------------|
G|-x-3-x-3-x---3/5---5---------------------------------|
D|-x-3-x---x-3-----5-----------------------------------|
A|-----------------------------------------------------|
E|-----------------------------------------------------|

E|-----------------------------------------------------|
B|-----------------------------------------------------|
G|---------5~------------------------------------------|
D|-----5h7---------------------------------------------|
A|-5/7-------------------------------------------------|
E|-----------------------------------------------------|

[Segunda Parte] 

              Dm
And now you step inside
         C         Bb       A    Dm
But you don't see too many faces
                      C
Comin' in out of the rain
              Bb      A
You hear the jazz go down

F                        C    Bb
  Competition in other places

Oh, but the horns
                   Dm   Bb  C
They blowin' that sound
                  Bb  C
Way on down south
                   Dm         Bb  C       
Way on down south London town

( Dm  Bb  C )

(Frases da Segunda Parte)

E|-----------------------------------------------------|
B|------10-11~------10---8---6-------------------------|
G|-----------------------------------------------------|
D|-9/11----------11----9---7---------------------------|
A|-----------------------------------------------------|
E|-----------------------------------------------------|

E|-10p9------------------------------------------------|
B|------10---------------------------------------------|
G|---------9\7\6---------------------------------------|
D|---------------7-5~----------------------------------|
A|-----------------------------------------------------|
E|-----------------------------------------------------|

E|-5-5-5-----------------------------------------------|
B|-6-6-6-----------------------------------------------|
G|-5-5-5-----------------------------------------------|
D|-7-7-7-----------------------------------------------|
A|-8-8-8-----------------------------------------------|
E|-----------------------------------------------------|

E|-----------------------------------------------------|
B|-5--x-5------6p5-6-5--x-3----------------------------|
G|-5--x-5------5---5-5--x-3----------------------------|
D|-5--x-5----x-7p5-7-5--x-3----------------------------|
A|-----------------------------------------------------|
E|-----------------------------------------------------|

E|-10-8------------------------------------------------|
B|-------10~-------------------------------------------|
G|-10-9------------------------------------------------|
D|-------10~-------------------------------------------|
A|-----------------------------------------------------|
E|-----------------------------------------------------|

E|-----------------------------------------------------|
B|-x-3-x-6-x---3/5---5---------------------------------|
G|-x-3-x-3-x---3/5---5---------------------------------|
D|-x-3-x---x-3-----5-----------------------------------|
A|-----------------------------------------------------|
E|-----------------------------------------------------|

E|-----------------------------------------------------|
B|-x-3-x-6-x---3/5---5---------------------------------|
G|-x-3-x-3-x---3/5---5---------------------------------|
D|-x-3-x---x-3-----5-----------------------------------|
A|-----------------------------------------------------|
E|-----------------------------------------------------|

E|-----------------------------------------------------|
B|-6-5-x-3----6--6p5-x-5~-------10---x-7---------------|
G|-7-5-x-3----7--5---x-5~----5/-10---x-8---------------|
D|-7-5-x-3----7--7p5-x-5~------------x-9---------------|
A|-----------------------------------------------------|
E|-----------------------------------------------------|

E|-----------------------------------------------------|
B|-6-5-x-3----6--6p5-x-5~------------------------------|
G|-7-5-x-3----7--5---x-5~------------------------------|
D|-7-5-x-3----7--7p5-x-5~------------------------------|
A|-----------------------------------------------------|
E|-----------------------------------------------------|

E|-----------------------------------------------------|
B|-----------------------------------------------------|
G|---------5~------------------------------------------|
D|-----5h7---------------------------------------------|
A|-5/7-------------------------------------------------|
E|-----------------------------------------------------|

[Terceira Parte] 

              Dm                C  Bb
You check out    guitar, George
         A                Dm
He knows   all the chords
 
Mind he's strictly rhythm
    C             Bb       A       
He doesn't wanna make it cry or sing

F                           C
  Left handed old guitar is all
              Bb
He can afford

When he gets up under the lights 
              Dm  Bb  C
To play his thing

(Frases da Terceira Parte)

E|------9--x-8-x-9-x--5-5-5----------------------------|
B|--------------------6-6-6----------------------------|
G|-2/---9--x-9-x-9-x--7-7-7----------------------------|
D|-----------------------------------------------------|
A|-----------------------------------------------------|
E|-----------------------------------------------------|

E|-------5---------9-------7---------------------------|
B|-----5---5-8b10----b10r8----8b10r8b10r8b10~---b10r8p6|
G|-7b9-------------------------------------------------|
D|-----------------------------------------------------|
A|-----------------------------------------------------|
E|-----------------------------------------------------|

E|-----------------------------------------------------|
B|-----8-----6-6-6-------------------------------------|
G|-7/9---9\7-7-7-7-------------------------------------|
D|-----------8-8-8-------------------------------------|
A|-----------------------------------------------------|
E|-----------------------------------------------------|

E|-------10--9---5~------------------------------------|
B|-----------------------------------------------------|
G|-5/10------9---6~------------------------------------|
D|-----------------------------------------------------|
A|-----------------------------------------------------|
E|-----------------------------------------------------|

E|-----------------------------------------------------|
B|-x-3-x-6-x---3/5---5---------------------------------|
G|-x-3-x-3-x---3/5---5---------------------------------|
D|-x-3-x---x-3-----5-----------------------------------|
A|-----------------------------------------------------|
E|-----------------------------------------------------|

E|-----------------------------------------------------|
B|-----------------------------------------------------|
G|-----5---5---5h7~------------------------------------|
D|-5/7---x---7-----------------------------------------|
A|-----------------------------------------------------|
E|-----------------------------------------------------|

[Quarta Parte] 

Dm                    C
   And Harry doesn't mind 
Bb            A                Dm
If he doesn't   make the scene
                    C
He's got a daytime job
      Bb      A
He's doin' alright

F 
  He can play the Honk Tonk
     C        Bb
Like anything
                         Dm   Bb  C
Savin' it up for Friday night
                 Bb  C
With the Sultans
                      Dm  Bb  C
With the Sultans of Swing

( Dm  Bb  C )

E|-----------------------------------------------------|
B|-8---------------------------------------------------|
G|-7b9r7b9r7b9r7~--------------------------------------|
D|-----------------------------------------------------|
A|-----------------------------------------------------|
E|-----------------------------------------------------|

E|-/10--9-------------5--------------------------------|
B|--------10---------------8b10------------------------|
G|-----------9---7-6-----------------------------------|
D|-----------------------------------------------------|
A|-----------------------------------------------------|
E|-----------------------------------------------------|

E|-----------------------------------------------------|
B|-5--x-5------6p5-6-5--x-3----------------------------|
G|-5--x-5------5---5-5--x-3----------------------------|
D|-5--x-5----x-7p5-7-5--x-3----------------------------|
A|-----------------------------------------------------|
E|-----------------------------------------------------|

E|-----------------------------------------------------|
B|---------6-5\4-3-------------------------------------|
G|-----7-----------------------------------------------|
D|-5/7---7---------------------------------------------|
A|-----------------------------------------------------|
E|-----------------------------------------------------|

E|-----------------------------------------------------|
B|-x-3-x-6-x---3/5---5---------------------------------|
G|-x-3-x-3-x---3/5---5---------------------------------|
D|-x-3-x---x-3-----5-----------------------------------|
A|-----------------------------------------------------|
E|-----------------------------------------------------|

E|-----------------------------------------------------|
B|-x-3-x-6-x---3/5---5---------------------------------|
G|-x-3-x-3-x---3/5---5---------------------------------|
D|-x-3-x---x-3-----5-----------------------------------|
A|-----------------------------------------------------|
E|-----------------------------------------------------|

E|-----------------------------------------------------|
B|-6-5-x-3----6--6p5-x-5~-------10---x-7---------------|
G|-7-5-x-3----7--5---x-5~----5/-10---x-8---------------|
D|-7-5-x-3----7--7p5-x-5~------------x-9---------------|
A|-----------------------------------------------------|
E|-----------------------------------------------------|

E|-----------------------------------------------------|
B|-6-5-x-3----6--6p5-x-5~------------------------------|
G|-7-5-x-3----7--5---x-5~------------------------------|
D|-7-5-x-3----7--7p5-x-5~------------------------------|
A|-----------------------------------------------------|
E|-----------------------------------------------------|

E|-----------------------------------------------------|
B|-----------------------------------------------------|
G|---------5~------------------------------------------|
D|-----5h7---------------------------------------------|
A|-5/7-------------------------------------------------|
E|-----------------------------------------------------|

[Quinta Parte] 

        Dm
And a crowd of young boys
         C        Bb   
They're fooling around 
        A     Dm
In the corner
                                  C
Drunk and dressed in their best brown 
        Bb          A
Baggies and their platform soles

F
  They don't give a damn 
            C                  Bb
About any trumpet playing band

It ain't what they call 
          Dm   Bb  C
Rock and roll
                Bb  C
And the Sultans
                           Dm   Bb  C
Yeah, the Sultans played Creole

( Dm  Bb  C )

E|---------12------------------13----------------------|
B|-12b14------b14r12-----------------------------------|
G|-----------------------13/14-------------------------|
D|-----------------------------------------------------|
A|-----------------------------------------------------|
E|-----------------------------------------------------|

E|-12p9------------------8-----------------------------|
B|------10---------10----8b10r8b10~--------------------|
G|---------9---7-6-------------------------------------|
D|-----------------------------------------------------|
A|-----------------------------------------------------|
E|-----------------------------------------------------|

E|-----------------------------------------------------|
B|-----8-----6-6-6-------------------------------------|
G|-7/9---9\7-7-7-7-------------------------------------|
D|-----------8-8-8-------------------------------------|
A|-----------------------------------------------------|
E|-----------------------------------------------------|

E|-----------------------------------------------------|
B|---------6-------------------------------------------|
G|-----7-----7~\---------------------------------------|
D|-5/7---7---------------------------------------------|
A|-----------------------------------------------------|
E|-----------------------------------------------------|

E|-----------------------------------------------------|
B|-x-3-x-6-x---3/5-------------------------------------|
G|-x-3-x-3-x---3/5-------------------------------------|
D|-x-3-x---x-3-----------------------------------------|
A|-----------------------------------------------------|
E|-----------------------------------------------------|

E|-----------------------------------------------------|
B|-x-3-x-6-x---3/5-------------------------------------|
G|-x-3-x-3-x---3/5-------------------------------------|
D|-x-3-x---x-3-----------------------------------------|
A|-----------------------------------------------------|
E|-----------------------------------------------------|

E|-----------------------------------------------------|
B|-6-5-x-3----6--6p5-x-5~-------10---x-7---------------|
G|-7-5-x-3----7--5---x-5~----5/-10---x-8---------------|
D|-7-5-x-3----7--7p5-x-5~------------x-9---------------|
A|-----------------------------------------------------|
E|-----------------------------------------------------|

E|-----------------------------------------------------|
B|-6-5-x-3----6--6p5-x-5~------------------------------|
G|-7-5-x-3----7--5---x-5~------------------------------|
D|-7-5-x-3----7--7p5-x-5~------------------------------|
A|-----------------------------------------------------|
E|-----------------------------------------------------|

E|-----------------------------------------------------|
B|-----------------------------------------------------|
G|---------5~------------------------------------------|
D|-----5h7---------------------------------------------|
A|-5/7-------------------------------------------------|
E|-----------------------------------------------------|

[Solo 1] Dm  C  Bb  A
         Dm  C  Bb  A
         F  C  Bb 
         Dm  Bb  C  Bb  C
         Dm  Bb  C
         Dm  Bb  C

E|-----------------------------------------------------|
B|-----------------------------------------------------|
G|-12b14~---12b14--12b14--12b14r12---10h12p10~-9h10p9~-|
D|-----------------------------------------------------|
A|-----------------------------------------------------|
E|-----------------------------------------------------|

E|---------------9-12b13r12----10----------------------|
B|------------10------------------10-------------------|
G|----------9------------------------10----------------|
D|-------11-----------------------------12~------------|
A|----12-----------------------------------------------|
E|-12--------------------------------------------------|

E|-----------------------------------------------------|
B|-10-13~---11h121p11~---10~-----11-----9/10---10~-----|
G|------------------------------------x----------------|
D|-----------------------------x----x--------x---------|
A|-----------------------------x----x--------x---------|
E|-----------------------------x----x--------x---------|

E|--------------------13-------------------------------|
B|---------13------------13----------------------------|
G|-12b14------12b14---------b14r12---10--10~~----------|
D|-----------------------------------------------------|
A|-----------------------------------------------------|
E|-----------------------------------------------------|

E|-/13--12---------------------------------------------|
B|----------13-------------13~--13~--------------------|
G|--------------12--14p12------------------------------|
D|-----------------------------------------------------|
A|-----------------------------------------------------|
E|-----------------------------------------------------|

E|-----------------------------------------------------|
B|-13b15~---b15r13--11-13b15--13b15~-------------------|
G|-----------------------------------------------------|
D|-----------------------------------------------------|
A|-----------------------------------------------------|
E|-----------------------------------------------------|

E|----13p10----10--------------------------------------|
B|-10-------10----13b15~---10--------------------------|
G|----------------------------12-10\-------------------|
D|-----------------------------------------------------|
A|-----------------------------------------------------|
E|-----------------------------------------------------|

E|-----------------------------------------------------|
B|-----3-6-3-------5-6/8--6-5h6/8----------------------|
G|---3-----------5-------------------------------------|
D|-3-----------5---------------------------------------|
A|-----------------------------------------------------|
E|-----------------------------------------------------|

E|-----------------------------------------------------|
B|-----3-6-3--------------------8----------------------|
G|---3------------5--7--5-7b9-----b9r7--5-7-7~---------|
D|-3-----------5---------------------------------------|
A|-----------------------------------------------------|
E|-----------------------------------------------------|

E|-----------------------------------------------------|
B|-6-5-x-3----6--6p5-x-5~-------10---x-7---------------|
G|-7-5-x-3----7--5---x-5~----5/-10---x-8---------------|
D|-7-5-x-3----7--7p5-x-5~------------x-9---------------|
A|-----------------------------------------------------|
E|-----------------------------------------------------|

E|-----------------------------------------------------|
B|-6-5-x-3----6--6p5-x-5~------------------------------|
G|-7-5-x-3----7--5---x-5~------------------------------|
D|-7-5-x-3----7--7p5-x-5~------------------------------|
A|-----------------------------------------------------|
E|-----------------------------------------------------|

E|-----------------------------------------------------|
B|-----------------------------------------------------|
G|---------5~------------------------------------------|
D|-----5h7---------------------------------------------|
A|-5/7-------------------------------------------------|
E|-----------------------------------------------------|

[Sexta Parte] 

Dm
   And then the man
     C         Bb         A         Dm
He steps right up to the microphone
              C
And says: At last
             Bb        A
Just as the time bell rings

F
  Goodnight
          C              Bb
Now it's time to go home

And he makes it fast 
                Dm   Bb  C
With one more thing
                   Bb  C
We are the Sultans
                        Dm  Bb  C
We are the Sultans of Swing

( Dm  Bb  C )

E|----5------7--7/9--9-----9/10/12--12\---10-----------|
B|-----------------------------------------------------|
G|-/6----6/7----7/9--9---9----------12\---10-----------|
D|-----------------------------------------------------|
A|-----------------------------------------------------|
E|-----------------------------------------------------|

E|--9--9--9--------------------------------------------|
B|-10-10-10--------------------------------------------|
G|--9--9--9--------------------------------------------|
D|-----------------------------------------------------|
A|-----------------------------------------------------|
E|-----------------------------------------------------|

E|-6-6-6-----------------------------------------------|
B|-6-6-6-----------------------------------------------|
G|-5-5-5-----------------------------------------------|
D|-7-7-7-----------------------------------------------|
A|-8-8-8-----------------------------------------------|
E|-----------------------------------------------------|

E|--------------6~-------------------------------------|
B|-----8---8-------------------------------------------|
G|-7/9---9------7~-------------------------------------|
D|-----------------------------------------------------|
A|-----------------------------------------------------|
E|-----------------------------------------------------|

E|-----------------------------------------------------|
B|---------6---6---------------------------------------|
G|-----7-----x---7~------------------------------------|
D|-5/7---x---------------------------------------------|
A|-----------------------------------------------------|
E|-----------------------------------------------------|

E|-----------------------------------------------------|
B|-x-3-x-6-x---3/5-------------------------------------|
G|-x-3-x-3-x---3/5-------------------------------------|
D|-x-3-x---x-3-----------------------------------------|
A|-----------------------------------------------------|
E|-----------------------------------------------------|

E|-----------------------------------------------------|
B|-x-3-x-6-x---3/5-------------------------------------|
G|-x-3-x-3-x---3/5-------------------------------------|
D|-x-3-x---x-3-----------------------------------------|
A|-----------------------------------------------------|
E|-----------------------------------------------------|

E|-----------------------------------------------------|
B|-6-5-x-3----6--6p5-x-5~-------10---x-7---------------|
G|-7-5-x-3----7--5---x-5~----5/-10---x-8---------------|
D|-7-5-x-3----7--7p5-x-5~------------x-9---------------|
A|-----------------------------------------------------|
E|-----------------------------------------------------|

E|-----------------------------------------------------|
B|-6-5-x-3----6--6p5-x-5~------------------------------|
G|-7-5-x-3----7--5---x-5~------------------------------|
D|-7-5-x-3----7--7p5-x-5~------------------------------|
A|-----------------------------------------------------|
E|-----------------------------------------------------|

E|-----------------------------------------------------|
B|-----------------------------------------------------|
G|---------5~------------------------------------------|
D|-----5h7---------------------------------------------|
A|-5/7-------------------------------------------------|
E|-----------------------------------------------------|

[Solo 2] Dm  Bb  C

E|-----------------------------------------------------|
B|-----------------------------------------------------|
G|-12b14~-----12--10-12-10-----------------------------|
D|-------------------------12~-------------------------|
A|-----------------------------------------------------|
E|-----------------------------------------------------|

E|-----------------------------------------------------|
B|-----------------------------------------------------|
G|-12b14r--12--9h12p9--7h9p7--5h7p5--------------------|
D|-----------------------------------5h7p5-------------|
A|------------------------------------------5h7p5------|
E|-----------------------------------------------------|

E|-----------------------------------------------------|
B|-----10p8----8---------------------------------------|
G|---x------10---10--7~--------------------------------|
D|-x---------------------------------------------------|
A|-----------------------------------------------------|
E|-----------------------------------------------------|

E|--------------8--------8--------8--------8--------8--|
B|-----8h10p8-----10p8-----10p8-----10p8-----10p8------|
G|-7/9--------9--------9--------9--------9--------9----|
D|-----------------------------------------------------|
A|-----------------------------------------------------|
E|-----------------------------------------------------|

E|--------8--------------------------------------------|
B|-10p8------------------------------------------------|
G|------9----------------------------------------------|
D|-----------x--x--------------------------------------|
A|-----------x--x--------------------------------------|
E|-----------x--x--------------------------------------|

E|-----------10----------------------------------------|
B|--------10----13p10----10---------------------10-----|
G|-12b14--------------12----12p10----x-------10----12~-|
D|--------------------------------12---10h12-----------|
A|-----------------------------------------------------|
E|-----------------------------------------------------|

E|-------------------------------12--------10----------|
B|-----10~-------11~-------11b13----b13r11-------------|
G|---x---------x---------x-----------------------------|
D|-x---------x---------x-----------------------x--x----|
A|---------------------------------------------x--x----|
E|---------------------------------------------x--x----|

E|-13p10----10-13p10----10-13p10----13p10----10-13p10--|
B|-------10----------10----------10-------10-----------|
G|-----------------------------------------------------|
D|-----------------------------------------------------|
A|-----------------------------------------------------|
E|-----------------------------------------------------|

E|----10-13p10----10-13p10----10-13--------------------|
B|-11----------11----------11--------------------------|
G|-----------------------------------------------------|
D|-----------------------------------------------------|
A|-----------------------------------------------------|
E|-----------------------------------------------------|

E|----12-15p12----12-15p12----12-15p12----12-15p12-----|
B|-13----------13----------13----------13--------------|
G|-----------------------------------------------------|
D|-----------------------------------------------------|
A|-----------------------------------------------------|
E|-----------------------------------------------------|

E|----12-15p12----12-15p12----12-15p12----12-15\-------|
B|-13----------13----------13----------13--------------|
G|-----------------------------------------------------|
D|-----------------------------------------------------|
A|-----------------------------------------------------|
E|-----------------------------------------------------|

E|----10-13p10----10-13p10----10-13p10----13p10--------|
B|-10----------10----------10----------10--------------|
G|-----------------------------------------------------|
D|-----------------------------------------------------|
A|-----------------------------------------------------|
E|-----------------------------------------------------|

E|----10-13p10----10-13p10----10-13p10----10-13--------|
B|-10----------11----------11----------11--------------|
G|-----------------------------------------------------|
D|-----------------------------------------------------|
A|-----------------------------------------------------|
E|-----------------------------------------------------|

E|----12-15p12----12-15p12----12-15p12----12-15p12-----|
B|-13----------13----------13----------13--------------|
G|-----------------------------------------------------|
D|-----------------------------------------------------|
A|-----------------------------------------------------|
E|-----------------------------------------------------|

E|----12-15p12----12-15p12----12-15p12----12-15p12-----|
B|-13----------13----------13----------13----------13--|
G|-----------------------------------------------------|
D|-----------------------------------------------------|
A|-----------------------------------------------------|
E|-----------------------------------------------------|

E|-15b17~---15b17r15-13-15-13--------------------------|
B|----------------------------15~----------------------|
G|-----------------------------------------------------|
D|-----------------------------------------------------|
A|-----------------------------------------------------|
E|-----------------------------------------------------|

E|-13-----15b17~r---12h15p12---------------------------|
B|----15----------------------13h15p13--10h13p10-------|
G|-----------------------------------------------------|
D|-----------------------------------------------------|
A|-----------------------------------------------------|
E|-----------------------------------------------------|

E|-----------------------------------------------------|
B|-----------------------------------------------------|
G|-10h12p10--------------------------------------------|
D|-----------10h12p10\---------------------------------|
A|-----------------------------------------------------|
E|-----------------------------------------------------|
Otros videos de esta canción
    2.208.283 exhibiciones
    • Simplificar cifrado
      • ½ Tono
      • Am
      • Bbm
      • Bm
      • Cm
      • C#m
      • Dm
      • Ebm
      • Em
      • Fm
      • F#m
      • Gm
      • G#m
    • Agregar a la lista

    Afinación de cifrado

    Afinador online

      Capítulos
      • Tocando a Música
      • Apresentação / Equipamentos
      • Ensinando Ritmo da Introdução
      • Ensinando Riff da Introdução
      • Ensinando Ritmo da Primeira Parte
      • Primeira Parte - Frase 1 de 7
      • Primeira Parte - Frase 2 de 7
      • Primeira Parte - Frase 3 de 7
      • Primeira Parte - Frase 4 de 7
      • Primeira Parte - Frase 5 de 7
      • Primeira Parte - Frase 6 de 7
      • Primeira Parte - Frase 7 de 7
      • Ensinando Ritmo das Partes
      • Segunda Parte - Frase 1 de 9
      • Segunda Parte - Frase 2 de 9
      • Segunda Parte - Frase 3 de 9
      • Segunda Parte - Frase 4 de 9
      • Segunda Parte - Frase 5 de 9
      • Segunda Parte - Frase 6 de 9
      • Segunda Parte - Frase 7 de 9
      • Segunda Parte - Frase 8 de 9
      • Segunda Parte - Frase 9 de 9
      • Terceira Parte - Frase 1 de 6
      • Terceira Parte - Frase 2 de 6
      • Terceira Parte - Frase 3 de 6
      • Terceira Parte - Frase 4 de 6
      • Terceira Parte - Frase 5 de 6
      • Terceira Parte - Frase 6 de 6
      • Quarta Parte - Frase 1 de 10
      • Quarta Parte - Frase 2 de 10
      • Quarta Parte - Frase 3 de 10
      • Quarta Parte - Frase 4 de 10
      • Quarta Parte - Frase 5 de 10
      • Quarta Parte - Frase 6 de 10
      • Quarta Parte - Frase 7 de 10
      • Quarta Parte - Frase 8 de 10
      • Quarta Parte - Frase 9 de 10
      • Quarta Parte - Frase 10 de 10
      • Quinta Parte - Frase 1 de 9
      • Quinta Parte - Frase 2 de 9
      • Quinta Parte - Frase 3 de 9
      • Quinta Parte - Frase 4 de 9
      • Quinta Parte - Frase 5 de 9
      • Quinta Parte - Frase 6 de 9
      • Quinta Parte - Frase 7 de 9
      • Quinta Parte - Frase 8 de 9
      • Quinta Parte - Frase 9 de 9
      • Primeiro Solo - Parte 1 de 12
      • Primeiro Solo - Parte 2 de 12
      • Primeiro Solo - Parte 3 de 12
      • Primeiro Solo - Parte 4 de 12
      • Primeiro Solo - Parte 5 de 12
      • Primeiro Solo - Parte 6 de 12
      • Primeiro Solo - Parte 7 de 12
      • Primeiro Solo - Parte 8 de 12
      • Primeiro Solo - Parte 9 de 12
      • Primeiro Solo - Parte 10 de 12
      • Primeiro Solo - Parte 11 de 12
      • Primeiro Solo - Parte 12 de 12
      • Sexta Parte - Frase 1 de 10
      • Sexta Parte - Frase 2 de 10
      • Sexta Parte - Frase 3 de 10
      • Sexta Parte - Frase 4 de 10
      • Sexta Parte - Frase 5 de 10
      • Sexta Parte - Frase 6 de 10
      • Sexta Parte - Frase 7 de 10
      • Sexta Parte - Frase 8 de 10
      • Sexta Parte - Frase 9 de 10
      • Sexta Parte - Frase 10 de 10
      • Segundo Solo - 1 de 18
      • Segundo Solo - 2 de 18
      • Segundo Solo - 3 de 18
      • Segundo Solo - 4 de 18
      • Segundo Solo - 5 de 18
      • Segundo Solo - 6 de 18
      • Segundo Solo - 7 de 18
      • Segundo Solo - 8 de 18
      • Segundo Solo - 9 de 18
      • Segundo Solo - 10 de 18
      • Segundo Solo - 11 de 18
      • Segundo Solo - 12 de 18
      • Segundo Solo - 13 de 18
      • Segundo Solo - 14 de 18
      • Segundo Solo - 15 de 18
      • Segundo Solo - 16 de 18
      • Segundo Solo - 17 de 18
      • Segundo Solo - 18 de 18
      • Encerramento
      OK