Cifra Club

Ouvir o Teu Falar

Discopraise

Cifrado: Ao-vivo (guitarra y guitarra eléctrica)
tono: D
[Intro]  G  Fm7  D  A
         G  Fm7  D  A
         F#m7  D/F#  G
         F#m7  D/F#  G

D                                    Bm7
Quanto mais eu corro mais cansado fico
                                 A
Não importa o quanto eu me sacrifico
                       G
Meus objetivos não consigo alcançar

D                         Bm7
Já trilhei em todos os caminhos
                                  A
Já gritei por todos mais fiquei sozinho
                           G
Sinto minha força se esgotar, Vem me ajudar

Bm7     A     G
Tenho ouvido falar das tuas maravilhas
Bm7        A         G
Que tens poder pra salvar
Bm7        A     G              D/F#
Escreve um novo começo pra minha vida
          Fm         Em/D       A4    A
Creio que ainda hoje tudo vai mudar

        D
Levantarei meu olhos
        A
E clamarei socorro
      Cm7           D/F#        G
Tua palavra diz que vais me escutar
        D
Levantarei meus olhos
        A
E clamarei socorro
        Cm7          D/F#         G
Meu coração só quer ouvir o Teu falar

[Solo]  Cm7  A  D/F#  G
        Cm7  A  D/F#  G

Solo de Guitarra:
 
 |----PM----|   
E|----------------------------------------------------|
B|----------------------------------------------------|
G|---4----6-----7---7/9--4/6~~~--6-4---4/6-4~~~-------|
D|-4----4----4-----------------------7----------------|
A|----------------------------------------------------|
E|----------------------------------------------------|

E|----7----9----10--10/12-7/9~~~--9-7-----7/9-7b(10)--|
B|--7----7----7-----------------------10--------------|
G|----------------------------------------------------|
D|----------------------------------------------------|
A|----------------------------------------------------|
E|----------------------------------------------------|

(Final do solo volta ao início)

  Fm7                         G
O que espera em Ti, jamais se abalará
           D                A/C#
Jamais se cansará, jamais desistirá
      Fm7                          G
O Teu sonho agora é o que eu espero alcançar
        D                         A/C#
Em Teu caminho andar, meu maior desejo é te agradar

        D
Levantarei meu olhos
        A
E clamarei socorro
      Cm7           D/F#        G
Tua palavra diz que vais me escutar
        D
Levantarei meus olhos
        A
E clamarei socorro
        Cm7          D/F#         G
Meu coração só quer ouvir o Teu falar 

   G   Em7   D    A       F#m7  D/F#  G
Ooho Ohoo Ohoooo Ohoo      
                    
                  D
Ouvir do Teu Falar
Composición de Discopraise
Colaboración y revisión:
  • Gusttavo Araujo
  • Felipe Rodrigo
  • Juliano Ferreira
138 vistas
    • ½ Tono
    • A
    • Bb
    • B
    • C
    • Db
    • D
    • Eb
    • E
    • F
    • F#
    • G
    • Ab
  • Agregar a la lista

    0 comentarios

    Ver todos los comentarios
    00:00 / 00:00
    Outros vídeos desta música
    Repetir Calidad Automático
    Outros vídeos desta música
    00:00 / 00:00
    Automático
    OK