Cifra Club

Aprenda

Salvo Pelo Teu Amor

Discopraise

Tablatura: Principal (guitarra)
Tom: B
Solo:
E|---------------------------------------------|
B|---------------------------------------------|
G|--------11-11-11-11-11-------9-9-9-9-9-------|
D|--9-9-9----------------9-9-9-----------------|
A|---------------------------------------------|
E|---------------------------------------------|

riff 1

E|----------------|
B|-12-11----------|
G|-------11-------|
D|----------------|
A|----------------|
E|----------------|

Intro: F#

B                      F#m
Pra que eu vivesse sua vida
E                     B
Você morreu a minha morte
B                 F#m
Agradecido eternamente eu sou
E                          B
Ao sacrificio que me libertou

E             G#m
Como é bom descansar
F#
Na certeza de que Deus
E    G#m   F#
Sabe o meu nome

Refrão:
B          C#m
Salvo pelo teu amor
     E
Não volto pro mundo não
     B              F#
Não volto pro mundo não
B          C#m
Salvo pelo teu amor
     E
Resgatado das trevas e do pecado
 B           F#
Encontrei a cruz

riff 1 4x (na hora da ministração, se na seu ministério fazer a ministração)


(solo)
 B             (4x)
Eu fui salvo

 B
Por Ti Jesus
Compositor DiscoPraise 106 reproducciones
    • ½ Tom
    • A
    • Bb
    • B
    • C
    • Db
    • D
    • Eb
    • E
    • F
    • F#
    • G
    • Ab
  • Adicionar à lista

    0 comentarios

    Mostrar mais comentários
    00:00 / 00:00
    outros vídeos desta música
    repetir qualidade Automático
    Outros vídeos desta música
    00:00 / 00:00
    Automático
    OK