Cifra Club

Se Eu Me Humilhar

Discopraise

Tablatura: Principal
reproducciones 1.451
Tono: E
[Intro] C#m  B  A
        C#m  B  A

E             B/D#         C#m  F#m7(11)
  Neste lugar      Tu És real
E              B/D#     C#m  F#m7(11)
  Vou me entregar totalmente
A                 B/D#
  O Teu toque      abriu os olhos 
 G#m        C#m  B
Do meu coração
    A    F#m        E
Eu posso enxergar e entender

               A
Se eu me humilhar
           B
Diante do Teu Altar
          A              B
E sacrificar aquilo que me custar
           F#m           E/G#            B
Tu inclinarás os Teus ouvidos ao meu clamor

              A                B
Mais vale um dia no centro do Teu querer
            A/C#               B/D#
Que toda a vida sem jamais Te conhecer
             F#m             E/G#           B
Tu És minha fonte, minha colheita, minha herança

E             B/D#         C#m  F#m7(11)
  Neste lugar      Tu És real
E              B/D#     C#m  F#m7(11)
  Vou me entregar totalmente
A             B/D#
  O Teu toque      abriu os olhos 
 G#m        C#m  B
Do meu coração
    A    F#m        E
Eu posso enxergar e entender

               A
Se eu me humilhar
           B
Diante do Teu Altar
          A              B
E sacrificar aquilo que me custar
           F#m           E/G#            B
Tu inclinarás os Teus ouvidos ao meu clamor

              A                B
Mais vale um dia no centro do Teu querer
            A/C#               B/D#
Que toda a vida sem jamais Te conhecer
             F#m             E/G#           B
Tu És minha fonte, minha colheita, minha herança

( F#m  E/G#  C#m  B )

F#m          E/G#           C#m
    A minha fonte é o Teu amor
          B              F#m
Minha colheita é o Teu amor
         E/G#           C#m  B
Minha herança é o Teu amor

F#m          E/G#           C#m
    A minha fonte é o Teu amor
          B              F#m
Minha colheita é o Teu amor
         E/G#           C#m  B
Minha herança é o Teu amor

[Solo] F#m  E/G#  C#m  B
       F#m  E/G#  C#m  B

Parte 1 de 4
E|---------------------------------------------|
B|-10-10-10--9-9-9--5-5--7-7-7-7-7-7-7-7-------|
G|---------------------------------------------|
D|-7--7--7---6-6-6--2-2--4-4-4-4-4-4-4-4-------|
A|---------------------------------------------|
E|---------------------------------------------|

Parte 2 de 4
E|---------------------------------------------|
B|-9-9-9--12-12-12--5-5--7-7-7-7-7-7-7-7-------|
G|---------------------------------------------|
D|-6-6-6--9--9--9---2-2--4-4-4-4-4-4-4-4-------|
A|---------------------------------------------|
E|---------------------------------------------|

Parte 3 de 4
E|---------------------------------------------|
B|-10-10-10--9-9-9--5-5--7-7-7-7-7-7-7-7-------|
G|---------------------------------------------|
D|-7--7--7---6-6-6--2-2--4-4-4-4-4-4-4-4-------|
A|---------------------------------------------|
E|---------------------------------------------|

Parte 4 de 4
E|---------------------------------------------|
B|---------------------------------------------|
G|-6-6-6-6--8-8-8-8--11-11-11-11-11-11-11-11---|
D|---------------------------------------------|
A|-4-4-4-4--6-6-6-6--9--9--9--9--9--9--9--9----|
E|---------------------------------------------|

               A
Se eu me humilhar
           B
Diante do Teu Altar
          A              B
E sacrificar aquilo que me custar
           F#m           E/G#            B
Tu inclinarás os Teus ouvidos ao meu clamor

              A                B
Mais vale um dia no centro do Teu querer
            A/C#               B/D#
Que toda a vida sem jamais Te conhecer
             F#m             E/G#           B
Tu És minha fonte, minha colheita, minha herança

               A
Se eu me humilhar
           B
Diante do Teu Altar
          A              B
E sacrificar aquilo que me custar
           F#m           E/G#            B
Tu inclinarás os Teus ouvidos ao meu clamor

              A                B
Mais vale um dia no centro do Teu querer
            A/C#               B/D#
Que toda a vida sem jamais Te conhecer
             F#m             E/G#           B
Tu És minha fonte, minha colheita, minha herança

[Final] C#m  B  A

0 comentarios

    mostrar más comentarios

    ¿Conseguiste tocar?

    28tocaron3aún no

    ¡Graba un vídeo tocando Se Eu Me Humilhar y envianoslo!

    00:00 / 00:00
    outros vídeos desta música
    repetirqualidadeautomática
    Outro vídeos desta música
      00:00 / 00:00
      automática
      OK