Enviar cifraEntrar

Se Eu Me Humilhar

Discopraise

Acordes: Principal
reproducciones 898
Tono: E
Intro 2x: A  F#m7  E  B/Eb   A  A/C#  E/B  B  G#m7  A  B/A  A

Solo intro:


E|----------------------------|
B|-4-4/5--4-4/5--10-9--9-7----|
G|----------------------------|
D|----------------------------|  (9x)
A|----------------------------|
E|----------------------------|


E           B/D#     A/C#  F#m7
Neste lugar Tu És real
E           B/D#     A/C#  F#m7
Vou me entregar totalmente
A7M         B/D#
O Teu toque abriu os olhos 
G#m7   C#m7    B
Do meu coração
A7M      F#m7       E9
Eu posso enxergar e entender

Refrão:
              A7M
Se eu me humilhar
          B9
Diante do Teu Altar
         A7M            B9
E sacrificar aquilo que me custar
          F#m7            E/G#          B
Tu inclinarás os Teus ouvidos ao meu clamor

             A7M                  B9
Mais vale um dia no centro do Teu querer
           A/C#            B/D#
Que toda a vida sem jamais Te conhecer
            F#m7           E/G#          B9
Tu És minha fonte, minha colheita, minha herança.

(Repete Tudo)

( F#m7   E/G#   C#m7  B )

F#m     E/G#             C#m7
A minha fonte é o Teu amor
        B                F#m
Minha colheita é o Teu amor
        E/G#             C#m     B9
Minha herança é o Teu amor                 

Solo: F#m7   E/G#   C#m7  B     2x


E|-------------------------------------------|
B|-10-10-10---9-9-9---5-5---7-7-7-7--7-7-7-7-|
G|-------------------------------------------|
D|-7--7--7----6-6-6---2-2---4-4-4-4--4-4-4-4-|
A|-------------------------------------------|
E|-------------------------------------------|


E|-------------------------------------------|
B|-9-9-9---12-12-12---5-5---7-7-7-7--7-7-7-7-|
G|-------------------------------------------|
D|-6-6-6---9--9--9----2-2---4-4-4-4--4-4-4-4-|
A|-------------------------------------------|
E|-------------------------------------------|


E|-------------------------------------------|
B|-10-10-10---9-9-9---5-5---7-7-7-7--7-7-7-7-|
G|-------------------------------------------|
D|-7--7--7----6-6-6---2-2---4-4-4-4--4-4-4-4-|
A|-------------------------------------------|
E|-------------------------------------------|


E|------------------------------------------------|
B|------------------------------------------------|
G|-6-6-6---8-8-8---9-9---11-11-11-11--11-11-11-11-|
D|------------------------------------------------|
A|-4-4-4---6-6-6---7-7---9--9--9--9---9--9--9--9--|
E|------------------------------------------------|


Refrão:
              A7M
Se eu me humilhar
          B9
Diante do Teu Altar
         A7M            B9
E sacrificar aquilo que me custar
          F#m7            E/G#          B
Tu inclinarás os Teus ouvidos ao meu clamor

             A7M                  B9
Mais vale um dia no centro do Teu querer
           A/C#            B/D#
Que toda a vida sem jamais Te conhecer
            F#m7           E/G#          B9
Tu És minha fonte, minha colheita, minha herança. 2x (No final da segunda vez segura no B)

Final: C#m7  B  A
  • 1
  • 2
  • 3
  • 4
  • 5
  • 6
  • 7
  • 8
  • 9
  • 10
  • 11
  • 12

    0 comentarios

      mostrar mas comentarios

      ¿Conseguiste tocar?

      26tocaron3aún no

      ¡Grave un vídeo tocando Se Eu Me Humilhar y envie para nosotros!

      00:00 / 00:00
      outros vídeos desta música
      repetirqualidadeautomática
      • automática
      Outro vídeos desta música
        00:00 / 00:00
        automática
        • automática
        cerrarplay/pause subir/bajar velocidad
          Acordes para:guitarra
          acordes
          cerrar
          OK