Cifra Club

Kick Buttowski

Disney

Cifrado: Principal (guitarra y guitarra eléctrica)
tono: Bm
E|-----------------------------------|
B|-----------------------------------|
G|-----------------------------------|
D|---9-----------9-------------------|
A|---9--0-1-2----9--0-1-2------------| 
E|---7--------0--7--------0----------|

E|-----------------------------------|
B|-----------------------------------|
G|-----------------------------------|   (3x)
D|---9---2-2--5-------2-2--5---------|
A|---9---2-2--5-------2-2--5---------| 
E|---7---0-0--3-------0-0--3---------|

Compositor não encontrado.
Colaboración y revisión:
  • João Pedro
669 vistas
    • ½ Tono
    • Am
    • Bbm
    • Bm
    • Cm
    • C#m
    • Dm
    • Ebm
    • Em
    • Fm
    • F#m
    • Gm
    • G#m
  • Agregar a la lista

    0 comentarios

    Ver todos los comentarios

    ¿Lograste tocar?

    1 Tocaron 1 Aún no

    ¡Graba un video tocando Kick Buttowski y envíanoslo!

    00:00 / 00:00
    Outros vídeos desta música
    Repetir Calidad Automático
    Outros vídeos desta música
    00:00 / 00:00
    Automático
    OK