Cifra Club

Gasoline Dreams

Dispatch

Cifrado: Principal (guitarra y guitarra eléctrica)
tono: E
Under the Radar/Patchwork CD
Tabbed by Owen Sakovics
*

--------------------------------
--------------------------------
-5p2-2p0---2-2---5p2-2p0---2-2--        x10
---------2---------------2------        
--------------------------------
--------------------------------

 F#m    G       E       
-2------3-------0--
-2------3-------0--
-2------4-------1--     x1
-4------5-------2--
-4------5-------2--
-2------3-------0--

--------------------------------
--------------------------------
-5p2-2p0---2-2---5p2-2p0---2-2--        x5
---------2---------------2------        
--------------------------------
--------------------------------

 F#m    G       E       
-2------3-------0--
-2------3-------0--
-2------4-------1--     x1
-4------5-------2--
-4------5-------2--
-2------3-------0--

--------------------------------
--------------------------------
-5p2-2p0---2-2---5p2-2p0---2-2--        x1
---------2---------------2------        
--------------------------------
--------------------------------

 F#m    G       E       
-2------3-------0--
-2------3-------0--
-2------4-------1--     x1
-4------5-------2--
-4------5-------2--
-2------3-------0--

--------------------------------
--------------------------------
-5p2-2p0---2-2---5p2-2p0---2-2--        x1
---------2---------------2------        
--------------------------------
--------------------------------

 A              A
-5--------------5-------------
-5--------------5-------------
-6--------------6-7h9-7-------  x4
-7-----5--------7-------10-7--
-7-5h7---3-5----7-------------
-5--------------5-------------

 F#m    G       G
-2------3-------3--
-2------3-------3--
-2------4-------4--     x1
-4------5-------5--
-4------5-------5--
-2------3-------3--

LEAD:
------------------5--3--------------------------8-8s10-8--
----8------------------5-------------------8-10-----------
-s9---9s7p5---5-7----------5h7---------7-9----------------
------------7------------7-----7--7-10--------------------
----------------------------------------------------------
----------------------------------------------------------

------------------5----------------------
----8-------------------8----------------
-s9---9s7p5---5-7----s9---9s7p5---5-7----
------------7-------------------7-----7--
-----------------------------------------
-----------------------------------------

------------------5--8-5-8-5------------------------------------------------
----8------------------------8-5--------------------------------------------
-s9---9s7p5---5-7-----------------7b9-7-5-7-5---5-7-7b8-7-5-7-7b8-7-5-7-7b9
------------7---------------------------------7-----------------------------
----------------------------------------------------------------------------
----------------------------------------------------------------------------

-s8-8-8-8-8-8-8-8h10-----------------10-12-x-12--10h12-10-----------10-12-10
---------------------10-8---------------------------------13-10--13---------
--------------------------9-8-7-5-7-----------------------------------------
----------------------------------------------------------------------------
----------------------------------------------------------------------------
----------------------------------------------------------------------------

--------------------------------
--------------------------------
-5p2-2p0---2-2---5p2-2p0---2-2--        x6
---------2---------------2------        
--------------------------------
--------------------------------

 F#m    G       E       
-2------3-------0--
-2------3-------0--
-2------4-------1--     x1
-4------5-------2--
-4------5-------2--
-2------3-------0--

--------------------------------
--------------------------------
-5p2-2p0---2-2---5p2-2p0---2-2--        x1
---------2---------------2------        
--------------------------------
--------------------------------

 F#m    G       E       
-2------3-------0--
-2------3-------0--
-2------4-------1--     x1
-4------5-------2--
-4------5-------2--
-2------3-------0--

              G   A
--------------3---0--
--------------3---2--
-5p2-2p0---0--0---2--   x1
---------2----0---2--   
--------------2---0--
--------------3---0--


00:00 / 00:00
Otros videos de esta canción
Repetir
Otros videos de esta canción
Compositor no encontrado.
40 exhibiciones
    • ½ Tono
    • A
    • Bb
    • B
    • C
    • Db
    • D
    • Eb
    • E
    • F
    • F#
    • G
    • Ab
  • Agregar a la lista
    00:00 / 00:00
    OK