Cifra Club

General

Dispatch

Chords: Principal (acoustic and electric guitars)
tone: B (chord shape for key of Bb) Capo on fret 1
ok this song is played in the key of A  so all you have to do is put a capo on the 1sr fret

Here's the intro

Intro
                      Bb    F                        Cm     Gm
E|----------------------------------------------------3--3--3----|
B|--------------------3--3----------------------------4--4--3----|
G|--------------------3--3--2-------------------------5--5--3----|
D|--------------------3--3--3--5~3--------------------5-----5----|
A|-----------1--1-----1--1--3------5~3----------------3-----5----|
E|--0--1--3--------3--------1----------5~3------------3-----3----|

             Eb      Bb        F
E|-----------6-6---6-6-x-------1-X-X------|
B|-----------8-8---6-6-x-------1-X-X------|
G|-----------8-8---7-7-x-------2-X-X------|
D|-----------8-8---8-8-x-------3-X-X------|
A|------1-3--6-6---8-8-x-------3-X-X------|
E|--1-3------6-6---6-8-x-------1-X-X------|

then the rest of the song is just           the one riff change goes like this

e|--0---0---2---2---2---0---0----------    ---2-xx--0-------------------------------------------------|
B|--2---0---3---2---3---2---0----------    ---2-xx--0-------------------------------------------------|
G|--2---1---4---2---2---2---1----------    ---2-xx--1-------------------------------------------------|
D|--2---2---4---4---0---2---2----------    ---4-xx--2-------------------------------------------------|
A|--0---2---2---4---0---0---2----------    ---4-xx--2-------------------------------------------------|
E|--0---0---x---2---x---0---0----------    ---2-xx--0-------------------------------------------------|
this is not the timing or the strumming pattern
it only shows the cord progression
00:00 / 00:00
Other videos of this song
Repeat
Other videos of this song
Composed by Dispatch
Collaboration and Review:
  • Anna Gabriella
134 views
    • ½ Tone
    • A
    • Bb
    • B
    • C
    • Db
    • D
    • Eb
    • E
    • F
    • F#
    • G
    • Ab
  • Add to list
    00:00 / 00:00
    OK