Cifra Club

Nene de antes

Divididos

Cifrado: Principal (guitarra y guitarra eléctrica)
tono: D
**INTRO: guitarra**
E|---------------|------------------------------------------------------------------|
B|---------------|------7h9p7--------------8h10p8-----------------------------------|
G|--------7-9b-7-| 9bb-7-------9h7-9-9bb--7--------9p7-9b-7--------------7/9/7-x-9b--|
D|----7/9--------|-----------------------------------------9p7----------7/9/7-x-9b--|
A|---------------|---------------------------------------------9p7-7-5--------------|
E|---------------|------------------------------------------------------------------|

D                            Bm                           G5                           F5
Peine, cardenales bajo el chaparron, aves raras de un pasado por agua otra vez al bylcreem
D                                 Bm                           G5                           F5
Ponele, las vbentosas al hombre invisible, que el chiflete debajo de la puerta no para de sonar


**ESTRIBILLO**: 'nene de antes..'
E|----------------------------------------------------------------------------------------------------------------------|
B|----------------------------------7--7---7----------------------------------7---7------------------7--7---7------7bb--|
G|--9bb-9b-7----9p7-----------------7--7h9-7--9-7----9b-7--------------7-9-7--7h9-7------7-9b-7------7--7h9-7--9-7------|
D|-----------9------9p7---------7h9---------------9b------9p7------7-9---------------7-9---------7h9--------------------|
A|----------------------9p7-----------------------------------9p7-------------------------------------------------------|
E|--------------------------9p7-----------------------------------------------------------------------------------------|

D                          Bm                         G5                             F5
Balcón, de inconclusa serenata fue, busco cama, vacaciones y llantos, el turista mortal
D                          Bm                        G5                                F5
Sudaba como una ballena en acensor a la consejera de esta locura se le fruncio el frances


**ESTRIBILLO**: 'nene de antes..'
E|----------------------------------------------------------------------------------------------------------------------|
B|----------------------------------7--7---7----------------------------------7---7------------------7--7---7------7bb--|
G|--9bb-9b-7----9p7-----------------7--7h9-7--9-7----9b-7--------------7-9-7--7h9-7------7-9b-7------7--7h9-7--9-7------|
D|-----------9------9p7---------7h9---------------9b------9p7------7-9---------------7-9---------7h9--------------------|
A|----------------------9p7-----------------------------------9p7-------------------------------------------------------|
E|--------------------------9p7-----------------------------------------------------------------------------------------|

**el punteo no lo pude sacar... si alguien lo puede sacar por favor transcribalo**
       G5                               F5
Tuve ataques de nervios pero estaba modeeeernooo
       G5                            F5
Con tapones limados, me sacaron la roooojaaaa
00:00 / 00:00
Otros videos de esta canción
Repetir
Otros videos de esta canción
Composición de Diego Arnedo / Jorge Araujo / Ricardo Mollo
539 exhibiciones
    • ½ Tono
    • A
    • Bb
    • B
    • C
    • Db
    • D
    • Eb
    • E
    • F
    • F#
    • G
    • Ab
  • Agregar a la lista
    00:00 / 00:00
    OK