Cifra Club

Spaghetti Del Rock

Divididos

Cifrado: Principal (guitarra y guitarra eléctrica)
tono: E
[Intro]

[Riff]

E|------------------------------------------|
B|------------------------------------------|
G|------------------------------------------|
D|-9h11-9-----------------------------------|
A|--------11\9-7-9-7------------------------|
E|------------------------------------------|

[Primeira Parte]

E     B     C#m      B      A            B
  Pistones de un curioso motor de humanidad
E    B       C#m     B      A       B
  Resortes viejos de este amor que va
E    B        C#m        B        A       B
  Memoria hostil de un tiempo de paz sin paz
E    B      C#m  B      A       B
  Narices frías de una noche atrás

[Refrão]

A            B
  Besos por celular
A               B
  Las momias de este amor
 A          B              E
Piden el actor de lo que fui

[Segunda Parte]

E     B     C#m    B          A      B
  Pantalla de la muerte y de la canción
E     B      C#m      B      A         B
  Proyectos de un nuevo spaghetti del rock

[Refrão]

A          B         A        B
  Cíclope de cristal   devora ambición
 A        B            E
Vomita modelos de ficción

[Terceira Parte]

      C#m
Remontar
    F#          A           Am
El barrilete en esta tempestad
        C#m  F#           A           G#
Sólo hará    entender que ayer no es hoy
  A         G#     A           B              E
Que hoy es hoy y que no soy actor de lo que fui

[Solo] C#m  A  B
       E  C#m  A  B

E|----------------------------9-------------|
B|------------------------------12p9--------|
G|--------------9----9--11b13---------------|
D|------------9---11------------------------|
A|-----7h9/11-------------------------------|
E|-7h9--------------------------------------|

E|------------------------------------------|
B|------------------------------------------|
G|-11b13r11p9--------------------9----------|
D|------------11p9-------------9---9h11-9---|
A|-----------------11\9-7-9/11--------------|
E|------------------------------------------|

E|-------9----------------------------------|
B|-12b14---12p9-------------------12--------|
G|--------------11b13r11p9--11b13----13r11--|
D|------------------------------------------|
A|------------------------------------------|
E|------------------------------------------|

E|-9----------9-11--------------------------|
B|---12------------12-----------------------|
G|------11b13---------11b13r11p9------------|
D|------------------------------------------|
A|------------------------------------------|
E|------------------------------------------|

E|------------------------------------------|
B|------------------------------------------|
G|--------------------9---------------------|
D|-11p9-------------9---9h11-9--------------|
A|------11\9-7-9/11-------------------------|
E|------------------------------------------|

E|-12----12----12---------------------------|
B|-12h14-12h14-12---------------------------|
G|------------------------------------------|
D|----------------x-x-9h11-9----------------|
A|-------------------------------7-9-9\11-9-|
E|---------------------------7h9------------|

[Refrão]

A            B     A            B
  Besos por celular las momias de este amor 
 A          B             E
Piden el actor de lo que fui

[Terceira Parte]

      C#m
Remontar
    F#          A           Am
El barrilete en esta tempestad
        C#m  F#           A           G#
Sólo hará    entender que ayer no es hoy
  A         G#     A           B      A       E
Que hoy es hoy y que no soy actor de lo que fui
00:00 / 00:00
Otros videos de esta canción
Repetir
Otros videos de esta canción
Composición de Diego Arnedo, Ricardo Mollo
Colaboración y revisión:
  • Thiago Almeida
  • Ruth Flora
11.218 exhibiciones
    • ½ Tono
    • A
    • Bb
    • B
    • C
    • Db
    • D
    • Eb
    • E
    • F
    • F#
    • G
    • Ab
  • Agregar a la lista
    00:00 / 00:00
    OK