Cifra Club

Aprenda

Vidro Fume

Dj Junhior Mix

Tablatura: Principal (guitarra)
Tom: C
Riff 1

      Am
E|-----------------------|
B|------0-1--------------|
G|-----------------------|
D|----2---2-2-0h2p0------|
A|--0----------------3---|
E|-----------------------| 


Riff 2

         F
E|-----------------------------|
B|-----------------------------|
G|-------0-2-----------0-2-----|
D|---------0-0-----------3-3-0-|
A|-----3-------3------3--------|
E|---1---------------1---------| 


(Am F)
Vidro fumê rolando vários beck
Som no último volume escutando filipe ret
Do jeito que ela gosta hoje eu tô marrento demais
Os menor é sagaz é o que te satisfaz

Várias danadinhas no contatinho do pai
Várias danadinhas no contatinho do pai
Várias danadinhas no contatinho do pai

Faz ela sentir prazer da linguada que ela se contrai
O macete é tu deixar com gostinho de quero mais

Várias danadinhas no contatinho do pai
Várias danadinhas no contatinho do pai
Várias danadinhas no contatinho do pai

Dei um lance nela ontem e hoje tá querendo mais

Várias danadinhas no contatinho do pai
Várias danadinhas no contatinho do pai
Várias danadinhas no contatinho do pai
Compositor mc th
Colaboración y revision:
  • Junhior Santtos
4 reproducciones
    • ½ Tom
    • A
    • Bb
    • B
    • C
    • Db
    • D
    • Eb
    • E
    • F
    • F#
    • G
    • Ab
  • Adicionar à lista

    0 comentarios

    Mostrar mais comentários

    ¿Conseguiste tocar?

    0 Tocaron 0 Ainda não

    Grave um vídeo tocando Vidro Fume e mande pra gente!

    00:00 / 00:00
    outros vídeos desta música
    repetir qualidade Automático
    Outros vídeos desta música
    00:00 / 00:00
    Automático
    OK