Cifra Club

Let Me Love You

DJ Snake

Cifrado: Principal (guitarra y guitarra eléctrica)
Selo Cifra Club: esta cifra foi revisada para atender aos critérios oficiais da nossa Equipe de Qualidade.
tono: Eb (con acordes en la forma de C) Capotraste en 3ª casa
Intro: Am C Em F Em F

            Am
I used to believe
          C                                Em  F
We were burnin' on the edge of somethin' beautiful
            Em  F
Somethin' beautiful
           Am
Sellin' a dream
           C
Smoke and mirrors
                      Em  F
Keep us waitin' on a miracle
      Em  F
On a miracle

     F
Say, go through the darkest of days
Am
Heaven's a heartbreak away
G                              Dm
Never let you go, never let me down
     F
Oh, it's been a hell of a ride
Am
Driving the edge of a knife
G                              Dm
Never let you go, never let me down
               Am
Don't you give up, nah-nah-nah
             C
I won't give up, nah-nah-nah
       Em   F
Let me love you
       Em   F
Let me love you
               Am
Don't you give up, nah-nah-nah
             C
I won't give up, nah-nah-nah
       Em   F
Let me love you
       Em   F
Let me love you

Oh baby, baby

Am C (Em F) (2x)

[Riff]

E|--0--0---------0--0---------0--0---------1--------------0--0---------1--------0h1--------|
B|--1-----3--1---1-----3--1---1-----3--1---1--1h5--3--1---1-----3------1--1----------1-----|
G|--2------------0------------0------------2--------------0--------2---2-----2----------2--| (2x)
D|--2------------2------------2------------3--------------2------------3-------------------|
A|--0------------3------------2------------3--------------2------------3-------------------|
E|----------------------------0------------1--------------0------------1-------------------|
           
             Am
Don't fall asleep
        C                               Em       F
At the wheel, we've got a million miles ahead of us
      Em       F
Miles ahead of us
            Am
All that we need
     C
Is a rude awakening
              Em   F
To know we're good enough (yeah)
           Em   F
Know we're good enough

     F
Say, go through the darkest of days
Am
Heaven's a heartbreak away
G                              Dm
Never let you go, never let me down
    F
Oh, it's been a hell of a ride
Am
Driving the edge of a knife
G                              Dm
Never let you go, never let me down

               Am
Don't you give up, nah-nah-nah
             C
I won't give up, nah-nah-nah
       Em   F
Let me love you
       Em   F
Let me love you
               Am
Don't you give up, nah-nah-nah
             C
I won't give up, nah-nah-nah
       Em   F
Let me love you
       Em   F
Let me love you

Oh baby, baby

Am C (Em F) (2x)

[Riff]

E|--0--0---------0--0---------0--0---------1--------------0--0---------1--------0h1--------|
B|--1-----3--1---1-----3--1---1-----3--1---1--1h5--3--1---1-----3------1--1----------1-----|
G|--2------------0------------0------------2--------------0--------2---2-----2----------2--| (2x)
D|--2------------2------------2------------3--------------2------------3-------------------|
A|--0------------3------------2------------3--------------2------------3-------------------|
E|----------------------------0------------1--------------0------------1-------------------|

               Am
Don't you give up, nah-nah-nah
             C
I won't give up, nah-nah-nah
       Em   F
Let me love you
       Em   F
Let me love you
               Am
Don't you give up, nah-nah-nah
             C
I won't give up, nah-nah-nah
       Em   F
Let me love you
       Em   F
Let me love you
Otros videos de esta canción
    101.900 exhibiciones
      • ½ Tono
      • A
      • Bb
      • B
      • C
      • Db
      • D
      • Eb
      • E
      • F
      • F#
      • G
      • Ab
    • Agregar a la lista

    Afinación de cifrado

    Afinador online

      OK