Cifra Club

Acelerou

Djavan

Cifrado: Principal (guitarra y guitarra eléctrica)
tono: C
[Intro] Am7  F7+  Dm7(9)  F7M  E7(9-)

(Riff)

E|--------------------------|
B|--------------------------|
G|--------------------------|
D|---5--7--5---5--7--5---5--|
A|-7--------7----------7----|
E|--------------------------|

[Primeira Parte]

Am7                            F7+
Ando tão perdido em meus pensamentos
 Am7                      Bm7(b5) E7(9-)
Longe já se vão os meus dias de  paz
 Am7                          F7+
Hoje com a lua clara brilhando
 Am7                  Bm7(b5)  E7(9-)
Vejo que o que sinto por ti é mais

[Segunda Parte]

 Am7                       F7+
Quando te vi, aquilo era quase o amor
          Dm7(9)                       F7M  Bm7(b5)  E7(9-)
Você me acelerou, acelerou, me deixou desigual
  Am7                         F7+
Chegou pra mim, me deu um daqueles sinais
 Dm7(9)                          F7M  Bm7(b5)  E7(9-)
Depois desacelerou e eu fiquei muito mais

( Am7  F7+  Dm7(9)  F7+  E7(9-) )

(Riff)

E|--------------------------|
B|--------------------------|
G|--------------------------|
D|---5--7--5---5--7--5---5--|
A|-7--------7----------7----|
E|--------------------------|

[Terceira Parte]

 Am7                          F7+
Sempre esperarei por ti, chegue quando
 Am7                     Bm7(b5) E7(9-)
Sonho em teus braços dormir, descansar
 Am7                          F7+
Venha e a vida pra você será boa
 Am7                      Bm7(b5)  E7(9-)
Cedo que é pra gente se amar a   mais

( Am7  F7+  Dm7(9)  F7+  E7(9-) )

(Riff)

E|--------------------------|
B|--------------------------|
G|--------------------------|
D|---5--7--5---5--7--5---5--|
A|-7--------7----------7----|
E|--------------------------|

[Ponte]

 F7/9
Muito mais perdido
Quase um cara vencido
À mercê de amigo ou
Coisa que o valha
Você me enlouquece
Você bem que merece
'Inda me aparece
De minissaia

( Am7  F7+  Dm7(9)  F7+  E7(9-) )

(Riff)

E|--------------------------|
B|--------------------------|
G|--------------------------|
D|---5--7--5---5--7--5---5--|
A|-7--------7----------7----|
E|--------------------------|

[Final]

 Am7                       F7+
Sério, o que eu vou fazer, eu te amo
 Am7                   Bm7(b5)   E7(9-)
Nada do que é você em mim se desfaz
 Am7                        F7+
Mesmo sem saber o teu sobrenome
  Am7                    Bm7(b5)  E7(9-)
Creio que te amar é pra sempre  mais
Composición de Djavan
1.237 vistas
    • ½ Tono
    • A
    • Bb
    • B
    • C
    • Db
    • D
    • Eb
    • E
    • F
    • F#
    • G
    • Ab
  • Agregar a la lista

    0 comentarios

    Ver todos los comentarios

    ¿Lograste tocar?

    17 Tocaron 2 Aún no

    ¡Graba un video tocando Acelerou y envíanoslo!

    00:00 / 00:00
    Outros vídeos desta música
    Repetir Calidad Automático
    Outros vídeos desta música
    00:00 / 00:00
    Automático
    OK