Cifra Club

Azul

Djavan

Cifrado: Principal (guitarra y guitarra eléctrica)
tono: Dm
[Intro] Gm7  C#°  Dm7(9)  Ab7(11+) 
        Gm7  C#°  Dm7(9)  Ab7(11+) 
        Gm7  C#°  Dm7(9)  F7(9) 
        Bb7M  A7(13-)  Ab7(11+)

E|-13-10----------5--------------------5-----|
B|-------9-8--6-8---6------6---9-8-6-8---8-6-|
G|--------------------7--7---7---------------|
D|-------------------------------------------|
A|-------------------------------------------|
E|-------------------------------------------|

E|-13-10-------------------------------------|
B|-------9-8--6---6-9-8---6---6-9-8-6--------|
G|--------------7-------7---7---------7------|
D|-------------------------------------------|
A|-------------------------------------------|
E|-------------------------------------------|

[Primeira Parte]

Gm7            C#º
    Eu não sei
       Dm7(9)          F7(9)
Se vem        de Deus
    Bb7M       A7(13-)  Dm7(9)  Ab7(11+)
Do céu ficar azul
Gm7         C#º
    Ou virá
          Dm7(9)       F7(9)
Dos olhos        teus
   Bb7M
Essa cor
               Em7(5-)  Ab7(11+)
Que azuleja o dia

Gm7          C#º      Dm7(9)  F7(9)
    Se acaso     anoitecer
     Bb7M          A7(13-)  Dm7(9)  Ab7(11+)
E o céu perder o azul
    Gm7     C#º           Dm7(9)  F7(9)
Entre o mar     e o entardecer
   Bb7M       
Alga marinha, 
 Em7(5-)  Ab7(11+)  Gm7  C#º
Vá na    ma________resia
       Dm7(9)     F7(9)
Buscar        ali 
     Bb7M      A7(13-)  Dm7(9)  Ab7(11+)
Um cheiro de azul
   Gm7     C#º          Dm7(9)  F7(9)
Essa   cor     não sai de mim
        Bb7M
Bate e finca pé
         A7(13-)
A sangue         de rei

[Refrão]

              Gm7      C#º   
Até o sol nascer amarelinho
          Dm7(9)
Queimando        mansinho
 F7(9)  Bb7M          A7(13-)  Dm7(9)
Cedinho,     cedinho cedinho
         Ab7(11+)
Corre e vá dizer
  Gm7            C#º
Pro meu benzinho
      Dm7(9)
Um dizer assim
F7(9)  Bb7M    A7(13-)   Dm7(9)  Ab7(11+)
O amor é     azulzinho
              Gm7      C#º   
Até o sol nascer amarelinho
          Dm7(9)
Queimando        mansinho
 F7(9)  Bb7M          A7(13-)  Dm7(9)
Cedinho,     cedinho cedinho
         Ab7(11+)
Corre e vá dizer
  Gm7            C#º
Pro meu benzinho
      Dm7(9)
Um dizer assim
F7(9)  Bb7M    A7(13-)   Dm7(9)  Ab7(11+)
O amor é     azulzinho

( Gm7  C#°  Dm7(9)  F7(9) )
( Bb7M  A7(13-)  Dm7(9)  Ab7(11+) )
( Gm7  C#°  Dm7(9)  F7(9) )
( Bb7M  A7(13-)  Ab7(11+) )
( Gm7  C#°  Dm7(9)  F7(9) )
( Bb7M  A7(13-)  Dm7(9)  Ab7(11+) )
( Gm7  C#°  Dm7(9)  F7(9) )
( Bb7M  A7(13-)  Ab7(11+) )

[Solo] Gm7  C#°  Dm7(9)  Ab7(11+) 
       Gm7  C#°  Dm7(9)  Ab7(11+) 
       Gm7  C#°  Dm7(9)  F7(9) 
       Bb7M  A7(13-)  Ab7(11+)

E|-13-10----------5--------------------5-----|
B|-------9-8--6-8---6------6---9-8-6-8---8-6-|
G|--------------------7--7---7---------------|
D|-------------------------------------------|
A|-------------------------------------------|
E|-------------------------------------------|

E|-13-10-------------------------------------|
B|-------9-8--6---6-9-8---6---6-9-8-6--------|
G|--------------7-------7---7---------7------|
D|-------------------------------------------|
A|-------------------------------------------|
E|-------------------------------------------|

[Primeira Parte]

Gm7            C#º
    Eu não sei
       Dm7(9)          F7(9)
Se vem        de Deus
    Bb7M       A7(13-)  Dm7(9)  Ab7(11+)
Do céu ficar azul
Gm7         C#º
    Ou virá
          Dm7(9)       F7(9)
Dos olhos        teus
   Bb7M
Essa cor
               Em7(5-)  Ab7(11+)
Que azuleja o dia

Gm7          C#º      Dm7(9)  F7(9)
    Se acaso     anoitecer
     Bb7M          A7(13-)  Dm7(9)  Ab7(11+)
E o céu perder o azul
    Gm7     C#º           Dm7(9)  F7(9)
Entre o mar     e o entardecer
   Bb7M       
Alga marinha, 
 Em7(5-)  Ab7(11+)  Gm7  C#º
Vá na    ma________resia
       Dm7(9)     F7(9)
Buscar        ali 
     Bb7M      A7(13-)  Dm7(9)  Ab7(11+)
Um cheiro de azul
   Gm7     C#º          Dm7(9)  F7(9)
Essa   cor     não sai de mim
        Bb7M
Bate e finca pé
         A7(13-)
A sangue         de rei

[Refrão]

              Gm7      C#º   
Até o sol nascer amarelinho
          Dm7(9)
Queimando        mansinho
 F7(9)  Bb7M          A7(13-)  Dm7(9)
Cedinho,     cedinho cedinho
         Ab7(11+)
Corre e vá dizer
  Gm7            C#º
Pro meu benzinho
      Dm7(9)
Um dizer assim
F7(9)  Bb7M    A7(13-)   Dm7(9)  Ab7(11+)
O amor é     azulzinho
              Gm7      C#º   
Até o sol nascer amarelinho
          Dm7(9)
Queimando        mansinho
 F7(9)  Bb7M          A7(13-)  Dm7(9)
Cedinho,     cedinho cedinho
         Ab7(11+)
Corre e vá dizer
  Gm7            C#º
Pro meu benzinho
      Dm7(9)
Um dizer assim
F7(9)  Bb7M    A7(13-)   Dm7(9)  
O amor é     azulzinho
00:00 / 00:00
Otros videos de esta canción
Repetir
Otros videos de esta canción
Composición de Djavan
Colaboración y revisión:
4.540 vistas
    • ½ Tono
    • Am
    • Bbm
    • Bm
    • Cm
    • C#m
    • Dm
    • Ebm
    • Em
    • Fm
    • F#m
    • Gm
    • G#m
  • Agregar a la lista

    0 comentarios

    Ver todos los comentarios

    ¿Lograste tocar?

    26 Tocaron 6 Aún no

    ¡Graba un video tocando Azul y envíanoslo!

    00:00 / 00:00
    OK