Cifra Club

Curumim

Djavan

Tablatura: Principal (guitarra)
Tom: C
[Intro] Am7 
    
   Am7                               G#º              Am E
E|----------------------------------------------------------------|
B|-----5---5---5---5---5---5---5---5----4---4---4---4---1---1---1-|
G|-----5---5---5---5---5---5---5---5----5---5---5---5---2---2---2-|
D|-----5-5-5-5-5-5-5---5-5-5-5-5-5-5----4-4-4-4-4-4-4---2-2-2-2-2-|
A|----------------------------------------------------------------|
E|---5---------------5----------------4---------------0-----------|

        F7M                              G7M
E|----------------------------------------------------------------|
B|---1-----1---1---1---1---1---1---1---1----3---3---3---3---3---3-|
G|---2-----2---2---2---2---2---2---2---2----4---4---4---4---4---4-|
D|-2-2-----2-2-2-2-2-2-2---2-2-2-2-2-2-2----4-4-4-4-4-4-4---4-4-4-|
A|----------------------------------------------------------------|
E|-------1---------------1----------------3---------------3-------|

E|----------------------------------------------------------------|
B|---3---3--------------------------------------------------------|
G|---4---4--------------------------------------------------------|
D|-4-4-4-4--------------------------------------------------------|
A|----------------------------------------------------------------|
E|----------------------------------------------------------------|

Am7                           G#º
O   que era flôr  eu já catei pra dar
 Am E                F7M
Até meu lá--pis de cor eu já dei
  G7M
G.I.Joe, eu já dei
             F7M
O que se  pensar eu já dei
  G7M              G#º
Minhas conchas do mar
Am7                         G#º
Ah!  minha flor  che--ga de maltratar
   Am E                 F7M
O que  mais po--de agradar  a você
G7M                         F7M
   Eu  já fiz  de tu--do cadê   que adiantou
G7M                             F7M
   Que louco  que é o amor tem graça viver
G7M                         F7M           G7M        G#º
    Quando e--la fi--ca de mal  não quer    brin---car...

Am7                           G#º
O   que era flôr  eu já catei pra dar
Am E                 F7M
Até meu lá--pis de cor eu já dei
  G7M
G.I.Joe, eu já dei
      F7M
O que se  pensar eu já dei
  G7M              G#º
Minhas conchas do mar
Am7                         G#º
Ah!  minha flor  che--ga de maltratar
    Am E                 F7M
O que  mais po--de agradar  a você
G7M                         F7M
   Eu  já fiz  de tu--do cadê   que adiantou
G7M                             F7M
   Que louco  que é o amor tem graça viver
G7M                        F7M           G7        G#º      Am7        
   Quando e--la fi--ca de mal  não quer    brin---car...

                                                            
                      Txu--carramãe  Krenacro---ro Ka---iapalo
               F7M        G7M          F7M        G7M         Am7      
Yawala---piti--i--------i-i -- i--i-i    --     i----i--i-i

                                                      F7M      
       Ka---mayurá Kaybi  Kui---kuru Waurá Suyá Aweti   --

 G7M       F7M       G7M   G#º     Am7
i---i-i-i    --     i-----i---i-i
reproducciones 137
Acordes para:
    Composição: Djavan Colaboración y revision:
    • Felipe gv
    • Carlexson Sena

    0 comentarios

    mostrar más comentarios

    ¿Conseguiste tocar?

    2 tocaron 0 aún no

    ¡Graba un vídeo tocando Curumim y envianoslo!

    00:00 / 00:00
    outros vídeos desta música
    repetir qualidade Automático
    Outros vídeos desta música
    00:00 / 00:00
    Automático
    OK