Enviar cifraEntrar

Eu Te Devoro

Djavan

Acordes: Principal
reproducciones 4.215
Tono: G
Intro: D7M  Bm7(9)  G9  Em  A7(4/9)
       D7M  Bm7(9)  G9  Em  A7(4/9)

Primeira Parte:

 D7M
Teus sinais
                   Bm7(9)
Me confundem da cabeça aos pés

Mas por dentro 
           G9  Em  A7(4/9)
Eu te devoro

 D7M
Teu olhar
                  Bm7(9)
Não me diz exato quem tu és
                     G9
Mesmo assim eu te devoro
 Em       A7(4/9)
Te devoraria 

    D7M
A qualquer preço
                     Bm7(9)
Porque te ignoro ou te conheço

Quando chove 
           G9      Em  A7(4/9)
Ou quando faz frio

 D7M
Noutro plano
              Bm7(9)
Te devoraria tal Caetano
              G9
A Leonardo DiCaprio
C7(9)
É um milagre

Refrão:

 Bm              B9/A            G7M
Tudo que Deus criou pensando em você
       Bm          B9/A        G7M
Fez a Via-Láctea, fez os dinossauros
        Bm           B9/A        G7M
Sem pensar em nada, fez a minha vida
   F#m7  G7M
E te deu

        Bm           B9/A      G7M
Sem contar os dias que me faz morrer
       Bm           B9/A     G7M
Sem saber de ti, jogado à solidão
        Bm
Mas se quer saber 
       B9/A        G7M
Se eu quero outra vida
 F#m7    G7M
Não, não

Intro: D7M  Bm7(9)  G9  Em  A7(4/9)
       D7M  Bm7(9)  G9  Em  A7(4/9)

Primeira Parte:

 D7M
Teus sinais
                   Bm7(9)
Me confundem da cabeça aos pés

Mas por dentro 
           G9  Em  A7(4/9)
Eu te devoro

 D7M
Teu olhar
                  Bm7(9)
Não me diz exato quem tu és
                     G9
Mesmo assim eu te devoro
 Em       A7(4/9)
Te devoraria 

    D7M
A qualquer preço
                     Bm7(9)
Porque te ignoro ou te conheço

Quando chove 
           G9      Em  A7(4/9)
Ou quando faz frio

 D7M
Noutro plano
              Bm7(9)
Te devoraria tal Caetano
              G9
A Leonardo DiCaprio
C7(9)
É um milagre

Refrão:

 Bm              B9/A            G7M
Tudo que Deus criou pensando em você
       Bm          B9/A        G7M
Fez a Via-Láctea, fez os dinossauros
        Bm           B9/A        G7M
Sem pensar em nada, fez a minha vida
   F#m7  G7M
E te deu

        Bm           B9/A      G7M
Sem contar os dias que me faz morrer
       Bm           B9/A     G7M
Sem saber de ti, jogado à solidão
        Bm
Mas se quer saber 
       B9/A        G7M
Se eu quero outra vida
 F#m7    G7M
Não, não

Final:

D7M
    Eu quero mesmo é viver
  Bm7(9)
Pra esperar, esperar
     G9      Em  A7(4/9)
Devorar você

D7M
    Eu quero mesmo é viver
  Bm7(9)
Pra esperar, esperar
     G9      Em  A7(4/9)
Devorar você

(fade)

Intro:

Parte 1


  D7M
E|-----x-----------x------------------------|
B|-2-2-x-----2-3p2-x------------------------|
G|-2-2-x-x---2-2---x-2----------------------|
D|-0---x---0-0-----x---0--------------------|
A|-----x-----------x------------------------|
E|-----x-----------x------------------------|


Parte 2


  Bm7(9)
E|-----x-----------x------------------------|
B|-2-2-x-----2-3\2-x------------------------|
G|-2-2-x-----2-2---x-2----------------------|
D|-0---x-0---0-----x------------------------|
A|-2---x---2-2-----x---2--------------------|
E|-----x-----------x------------------------|


Parte 3


   G9                      Em
E|-----x-------x---------------x------------|
B|-0-0-x-----0-x-0---0---------x------------|
G|-2-2-x-----2-x-2---2---2-4-4-x------------|
D|-0-0-x-x---0-x-0---0---4-5-5-x-x----------|
A|-----x-------x---------------x------------|
E|-3---x---x---x---3---3---0---x---0--------| 

                     ↓

Parte 4


   A7(4/9)
E|-----0-0----------------------------------|
B|-----3-3----------------------------------|
G|-----4-4----------------------------------|
D|-----5-5----------------------------------|
A|-0-0-----0--------------------------------|
E|------------------------------------------|


Parte 1


  D7M
E|-----x-----------x------------------------|
B|-2-2-x-----2-3p2-x------------------------|
G|-2-2-x-x---2-2---x-2----------------------|
D|-0---x---0-0-----x---0--------------------|
A|-----x-----------x------------------------|
E|-----x-----------x------------------------|


Parte 2


  Bm7(9)
E|-----x-----------x------------------------|
B|-2-2-x-----2-3\2-x------------------------|
G|-2-2-x-----2-2---x-2----------------------|
D|-0---x-0---0-----x------------------------|
A|-2---x---2-2-----x---2--------------------|
E|-----x-----------x------------------------|


Parte 3


   G9                      Em
E|-----x-------x---------------x------------|
B|-0-0-x-----0-x-0---0---------x------------|
G|-2-2-x-----2-x-2---2---2-4-4-x------------|
D|-0-0-x-x---0-x-0---0---4-5-5-x-x----------|
A|-----x-------x---------------x------------|
E|-3---x---x---x---3---3---0---x---0--------| 

                     ↓

Parte 4 (variação)


   A7(4/9)
E|------------------------------------------|
B|---3---3h5--------------------------------|
G|---4---4----------------------------------|
D|---5---5----------------------------------|
A|-0---0-----0------------------------------|
E|------------------------------------------|


Parte 5 


   C7(9)
E|------------------------------------------|
B|-3-3-3---3-3------------------------------|
G|-3-3-3---3-3------------------------------|
D|-2-2-2---2-2------------------------------|
A|-3-----3-----3----------------------------|
E|------------------------------------------|

     ↓ ↑   ↓ ↑

Refrão:

Parte 1


   Bm      B9/A
E|---2-2------2-2---------------------------|
B|-3-3-3----2-2-2---------------------------|
G|-4-4-4----4-4-4---------------------------|
D|-4--------4-------------------------------|
A|-2-----2--0-----0-------------------------|
E|------------------------------------------|

     ↓ ↑      ↓ ↑

Parte 2


  G7M
E|-----x-------x----------------------------|
B|-3-3-x-----3-x-3---3-3--------------------|
G|-4-4-x-----4-x-4---4-4--------------------|
D|-4-4-x-x---4-x-4---4-4--------------------|
A|-----x-------x----------------------------|
E|-3---x---x---x---3-----3------------------|

                     ↓ ↑

(Parte 1 e Parte 2) 3x

Parte 3


  F#m7
E|-----x-------x----------------------------|
B|-2-2-x-----2-x-2---2-2--------------------|
G|-2-2-x-----2-x-2---2-2--------------------|
D|-2-2-x-x---2-x-2---2-2--------------------|
A|-----x-------x----------------------------|
E|-2---x---x---x---2-----2------------------|

                     ↓ ↑

Parte 4


  F#m7     G7M
E|------------------------------------------|
B|-2-2-2----3-3-3---------------------------|
G|-2-2-2----4-4-4---------------------------|
D|-2-2-2----4-4-4---------------------------|
A|------------------------------------------|
E|-2-----2--3-----3-------------------------|

     ↓ ↑      ↓ ↑


Parte 1


   Bm      B9/A
E|---2-2------2-2---------------------------|
B|-3-3-3----2-2-2---------------------------|
G|-4-4-4----4-4-4---------------------------|
D|-4--------4-------------------------------|
A|-2-----2--0-----0-------------------------|
E|------------------------------------------|

     ↓ ↑      ↓ ↑

Parte 2


  G7M
E|-----x-------x----------------------------|
B|-3-3-x-----3-x-3---3-3--------------------|
G|-4-4-x-----4-x-4---4-4--------------------|
D|-4-4-x-x---4-x-4---4-4--------------------|
A|-----x-------x----------------------------|
E|-3---x---x---x---3-----3------------------|

                     ↓ ↑

(Parte 1 e Parte 2) 3x

Parte 3


  F#m7
E|-----x-------x----------------------------|
B|-2-2-x-----2-x-2---2-2--------------------|
G|-2-2-x-----2-x-2---2-2--------------------|
D|-2-2-x-x---2-x-2---2-2--------------------|
A|-----x-------x----------------------------|
E|-2---x---x---x---2-----2------------------|

                     ↓ ↑

Parte 4 (variação)


   G7M
E|-------2----------------------------------|
B|-3---3------------------------------------|
G|-4-4--------------------------------------|
D|-4----------------------------------------|
A|------------------------------------------|
E|-3----------------------------------------|
  • 1
  • 2
  • 3
  • 4
  • 5
  • 6
  • 7
  • 8
  • 9
  • 10
  • 11
  • 12
    Acordes para:
      Composición: DjavanColaboración y revision:

      0 comentarios

        mostrar mas comentarios

        ¿Conseguiste tocar?

        136tocaron3aún no

        ¡Grave un vídeo tocando Eu Te Devoro y envie para nosotros!

        00:00 / 00:00
        outros vídeos desta música
        repetirqualidadeautomática
        • automática
        Outro vídeos desta música
          Capítulos
          • Início
          • Acordes da introdução
          • Tocando introdução
          • Ritmo da introdução
          • Acordes da primeira parte
          • Tocando primeira parte
          • Passagem
          • Acordes refrão
          • Tocando refrão
          • Ritmo refrão
          • Encerramento
          00:00 / 00:00
          automática
          • automática
          cerrarplay/pause subir/bajar velocidad
            Acordes para:guitarra
            acordes
            cerrar
            OK