Cifra Club

Faltando Um Pedaço

Djavan

Cifrado: Principal (guitarra y guitarra eléctrica)
tono: E
[Intro] B7(4/9)  E  B7(4/9)/E  E7M
        A7M/C#  E  B7(4/9)/E  
        E  B7(4/9)/E  E7M  A6/E 
        E  B7(4/9)/E  E7M  A6/E 

E|--12---10p9--------------12--10p9----------|
B|--------------12--10p9-------------12-10p9-|
G|-------------------------------------------|
D|-------------------------------------------|
A|-------------------------------------------|
E|-0---0------0----0-----0----0----0---0-----|

E|--12---10p9--------------12--10p9----------|
B|--------------12--10p9-------------12-10p9-|
G|-------------------------------------------|
D|-------------------------------------------|
A|-------------------------------------------|
E|-0---0------0----0-----0----0----0---0-----|

E|-------------------------------------------|
B|--9----------10---12---9----------10---12--|
G|------11p9-----------------11p9------------|
D|-------------------------------------------|
A|-------------------------------------------|
E|-0--0------0----0----0---0------0----0-----|

E|-------------------------------------------|
B|--9----------10---12---9----------10---12--|
G|------11p9-----------------11p9------------|
D|-------------------------------------------|
A|-------------------------------------------|
E|-0--0------0----0----0---0------0----0-----|

E|-12-12--10-10--9-9-------------------0-----|
B|-9--9---9--9---9-9--12-12--10-9------0-----|
G|--------------------9--9---9--9--11--1-----|
D|-------------------------------------2-----|
A|-------------------------------------2-----|
E|-0------0------0----0------0---------0-----|

[Primeira Parte]

E                     A7M/C#     
  O amor é um grande laço 
                    G#m7/D#
Um passo pruma armadilha
                     A7M/E         
Um lobo correndo em círculo 
                    G#m(11)/D#
Pra alimentar  a matilha
                A6(9)/C#         
Comparo sua chegada       
        A9/C#        G#m7/D#
Como a fuga   de uma ilha
                      A7M/E     
Tanto engorda quanto mata feito 
 B7(4/9)     E
Desgosto de filha
    B7(4/9)/E 
De filha

( E7M  A6/E  E  B7(4/9)/E )
( E7M  A6/E )    

[Segunda Parte]
                     
E                   A7M/C#
  O amor é como um raio
                   G#m7/D#    
Galopando em  desafio       
                    A7M/E
Abre fendas, cobre vales
                       G#m(11)/D#  
Revolta as  águas dos rios        
                        A6(9)/C#
Quem tentar seguir seu rastro
    A9/C#         G#m7/D#                 A7M/E
Se perderá  no caminho  na pureza de um limão
 B7(4/9)               E     B7(4/9) 
Ou na    solidão do espinho

( G#m  F#m  E  )
( B7(4/9)  G#m  A  B7(9)  E  B7(4/9)/E )
( E7M  A6/E  E  B7(4/9)/E  E7M  A6/E

[Terceira Parte]

E                A7M/C#        
  O amor e a agonia  
                    G#m7/D#
Cerraram fogo no espaço
                  A7M/E         
Brigando horas a fio   
                  G#m(11)/D#
O cio vence o cansaço
                    A6(9)/C#    
E o coração de quem ama      
      A9/C#          G#m7/D#
Fica faltando  um pedaço
                   A7M/E 
Que nem a lua minguando 
  B7(4/9)                 E    
Que nem  o meu nos seus braços

[Final] B7(4/9)/E  E7M  A6/E  E  B7(4/9)/E 
        E7M  A6/E  E  B7(4/9)/E  E7M
        A6/E  A  B7(4/9)  E
00:00 / 00:00
Otros videos de esta canción
Repetir
Otros videos de esta canción
Composición de Djavan
Colaboración y revisión:
  • Gustavo Vaz
  • Carlexson Sena
2.465 vistas
    • ½ Tono
    • A
    • Bb
    • B
    • C
    • Db
    • D
    • Eb
    • E
    • F
    • F#
    • G
    • Ab
  • Agregar a la lista

    0 comentarios

    Ver todos los comentarios

    ¿Lograste tocar?

    15 Tocaron 3 Aún no

    ¡Graba un video tocando Faltando Um Pedaço y envíanoslo!

    00:00 / 00:00
    OK