Cifra Club

Faltando Um Pedaço

Djavan

Tablatura: Principal (guitarra)
Tom: E
E|---12---10p9-------------- e|------------------------|
B|---------------12---10p9-- B|---9----------10p9---12-|
G|-9----9------9----9------- G|-9---9--11--9------9----|
D|-------------------------- D|------------------------| 4x
A|-------------------------- A|------------------------|
E|-------------------------- E|------------------------|


E|-12-12-10-10-9--9----------------0-|
B|-------------------12-12-10-9-7--0-|
G|-9--9--9--9--9--9--9--9--9--9-9--1-|
D|---------------------------------2-|
A|---------------------------------2-|
E|---------------------------------0-|


          F#m7/E   E                 F#m7/E  E
E|-----0-4---2--222----0----7-9---------2-222----0--|
B|---0----------222----0--0-----7-9---2---222----0--|
G|-1-------2----222----1------------2-----222----1--|
D|--------------222----2------------------222----2--| 2x
A|--------------444----2------------------444----2--|
E|--------------000----0------------------000----0--|



Intro.: E / / / B7(4/9)/E / / / E7M / / / A6/E / / /
        E / / / B7(4/9)/E / / / E7M / / / A6/E / / /


E                        A7M/C#                          G#m7/D#
 O amor é um gran---de la-------ço um passo pru---ma armadilha
                       A7M/E                         G#m(11)/D#
Um lobo correndo em cír------culo pra alimentar  a matilha
                 A(6/9)/C#         Aadd9/C#             G#m7/D#
Comparo su--a chegada       como a fuga       de u--ma i-------lha
                        A7M/E     B7(4/9)                E
Tanto engorda quanto ma------ta feito     desgosto de fi--lha
   B7(4/9)/E / / / E7M / / / A6/E / / / E / / / B7(4/9)/E / / /
De fi----lha

E7M / / / A6/E / / / E                         A7M/C#
                       O amor é co---mo um rai-------o
                  G#m7/D#                         A7M/E
Galopando em  desafio       abre fendas, cobre va-------les
                        G#m(11)/D#                           A(6/9)/C#
Revolta as  á--guas dos rios        quem tentar se--guir seu rastro
      Aadd9/C#           G#m7/D#                           A7M/E
Se perderá        no cami-------nho  na pureza de um limão
   B7(4/9)                E       B7(4/9) / / / G#m / / / F#m / / /
Ou na      solidão do espi---nho

E / / / B7(4/9) / / / G#m / / / A / B7(9) / E / / / B7(4/9)/E / / /
E7M / / / A6/E / / / E / / / B7(4/9)/E / / / E7M / / / A6/E / / /


E                  A7M/C#                        G#m7/D#
  O amor e a agoni-------a  cerraram fo--go no espaço
                   A7M/E                       G#m(11)/D#
Brigando horas a fi------o  o cio ven--ce o cansaço
                    A(6/9)/C#       Aadd9/C#           G#m7/D#
E o coração de quem ama        fica faltando   um peda---------ço
                      A7M/E        B7(4/9)                   E    / / /
Que nem a lua minguan-------do que nem    o meu nos seus bra---ços

B7(4/9)/E / / / E7M / / / A6/E / / / E / / / B7(4/9)/E / / / E7M / / /
A6/E / / / E / / / B7(4/9)/E / / / E7M / / / A6/E / / / A / B7(4/9) E



Solo do meio:

E|-----------------------------------------------7------7/9-7----0----|
B|-------------------------------------------5--------5--------2---9--|
G|-----------1-----------------------------6---6----6-----------------|
D|-----4-4-4---2--4-2-1--2-1---------2--------------------------------|
A|-2-4-----------------------------4---2------------------------------|
E|---------------------------2/4-2------------------------------------|

E|-11-7-9---------------------|
B|--------7-7/9-5-------------|
G|----------------4-----------|
D|----------------------------|
A|----------------------------|
E|----------------------------|
reproducciones 977
Acordes para:
    Composição: Djavan Colaboración y revision:
    • Carlexson Sena

    0 comentarios

    mostrar más comentarios

    ¿Conseguiste tocar?

    6 tocaron 2 aún no

    ¡Graba un vídeo tocando Faltando Um Pedaço y envianoslo!

    00:00 / 00:00
    outros vídeos desta música
    repetir qualidade Automático
    Outros vídeos desta música
    00:00 / 00:00
    Automático
    OK