Cifra Club

Aprenda

Flor de Lis

Djavan

Tab de bajo: Principal
Introdução:
G---------------------------------------
D----5--2--3-5-6-5-2--5--2--3--3-5-5....
A--3--3--3----------3--3--3--3----------
E---------------------------------------
B---------------------------------------

Parte 1:
G----------------------------------------------------------------------------------------
D----5---------4-2-----------5-3-----3-3-------------------------------5-----------------
A--3--3----2-2----------5-3-----5--3--3--2--2-1-1-----------0-2-2--7-7------4-5-5--------
E-------1-3-------0-5-7----3-----3--------2-------5-5-0-2-2--------------5-5-----5-3-3-5.....
B----------------------------------------------------------------------------------------

G-----------------------------------------------------------------------------------------------------------------
D---5---------4-2-----------5-3-----3-3-------------------------------5-----------2-2-2------------7-7-6-6-6-5-5-5
A-3--3----2-2----------5-3-----5--3--3--2--2-1-1-----------0-2-2--7-7-------------------3-3--5-6-7----------------
E------1-3-------0-5-7----3-----3--------2-------5-5-0-2-2--------------5-5--5-5-5--------------------------------
B---------------------------------------------------------------------------5-------------------------------------

Refrão:
G
D------3-3--3-------2-2---2-------------------------
A-3-------3---1---1-----2----------5-5--5---------3-   2x
E----3----------1-----------5-5--5----5---3-3---3---
B------------------------------5--------------3-----
Composição de Djavan / Regina Werneck
Colaboración y revision:
  • Pedro Henrique
213 reproducciones

0 comentarios

Ver todos os comentários
00:00 / 00:00
outros vídeos desta música
repetir qualidade Automático
Outros vídeos desta música
00:00 / 00:00
Automático
OK