Cifra Club

Flor do Medo

Djavan

Tablatura: Principal (guitarra)
Tom: C
[Intro] Am7(9)  Cm6  Bm7  Bbº(b13) / /
        Am7(9)  Cm6  G7M  E7(b13)

E|---------------------------| ---------------------|
B|---------------------------| ---------------------|
G|---------------------------| --8-8-5-7-8---8-7-5--|
D|--10-10-7-9-10-10--10-9-7--| ---------------------|
A|---------------------------| ---------------------|
E|---------------------------| ---------------------|

E|-------------------------| ---------------------------|
B|--------------------5/7--| ---------------------------|
G|--7-7-4-5-7-7---5-7------| ---------------------------|
D|-------------------------| --10-10-7-9-10-10--10-9-7--|
A|-------------------------| ---------------------------|
E|-------------------------| ---------------------------|

E|--------------------------------|
B|--------------------------------|
G|--7/8-7-------------------------|
D|--------7--9p7-9-------7--------|
A|------------------9/10---7~~~~--|
E|--------------------------------|

            Am7(9)          Cm6                   Bm7        Bbº(b13)
Venha me beijar   de uma vez    você pensa demais pra decidir
               Am7(9)       Cm6                          Bm7
Venha a mim de corpo e alma     libera e deixa o que for    nos unir
Bbº(b13)  Bbm6              Am7(9)         Cm6                     Bm7
               Não vá fugir mais   uma vez     vença a falta de ar
                        Bbº(b13)
Que a flor do medo traz         tente pensar
             Am7(9)       Cm6                             G7M 
Pode até ser mal    e tal     mas pode até ser que seja demais
Dm7                Em7                  Dm7
    Tudo vai mudar     posso pressentir     você vai lembrar e rir
Am7(9)  Cm7        F7(9)               Bb7M        Eb7(9)
            Alguma dor   que não vai matar ninguém
         Am7(9)            G#º(b13)                     Am7(9)
Pode ser vista  nos rondar          não precisa se assustar
     Cm6            G7M  E7(b13)
Isso é   glamour de amor

E|-----------------------------------------|
B|----------------------14/15--13-12-------|
G|--------12-------12----------------12~~--|
D|--12-14-----12-14------------------------|
A|-----------------------------------------|
E|-----------------------------------------|

            Am7(9)            Cm6                   Bm7        Bbº(b13)
Venha me beijar    de uma vez     feito nuvem no ar sem aflição
               Am7(9)        Cm6                     Bm7     Bbº(b13)
Venha a mim de corpo  e alma     libera a paz do meu coração
Bbm6              Am7(9)          Cm6                  Bm7
     Não vá se perder    outra vez    nesse mesmo lugar    por onde
          Bbº(b13)                           Am7(9)       Cm6
Já passou          tente pensar pode até ser sonho  e tal
                            G7M  E7(b13) / Am7(9)  Cm6  Bm7
Mas pode até ser que seja o amor

E|-------------------------------| -------------------------|
B|-------------------------------| -------------------------|
G|-----------12-14b15r14-12-14b--| -----12--14b15r14-12-----|
D|--12-12-14---------------------| --14-----------------13--|
A|-------------------------------| -------------------------|
E|-------------------------------| -------------------------|

E|------------------------------| ---------------------------|
B|------------------------------| ------------------------8--|
G|------------------------------| ----7---------9-----7-9----|
D|--12h13p12-10----8/9-9-12-----| --9---7-7-9-7---7-9--------|
A|--------------10----------12--| ---------------------------|
E|------------------------------| ---------------------------|

E|--8-10-11-8-8h10-8-7-7-----------|
B|-----------------------10h11p10--|
G|---------------------------------|
D|---------------------------------|
A|---------------------------------|
E|---------------------------------|

E|------------------------| ---------------------|
B|--10h12p10----10-12-12--| --10h12p10----10-----|
G|-----------12-----------| -----------12----12--|
D|------------------------| ---------------------|
A|------------------------| ---------------------|
E|------------------------| ---------------------|

   Bbº(b13)  Am7(9)  Cm6  Bm7  Bbº(b13)  Bbm6 
Am7(9)  Cm6  Bm7  Bbº(b13)  Am7(9)  Cm6  G7M 

Dm7                Em7                  Dm7
    Tudo vai mudar     posso pressentir     você vai lembrar e rir
Am7(9)  Cm7        F7(9)               Bb7M        Eb7(9)
            Alguma dor   que não vai matar ninguém
         Am7(9)            G#º(b13)                     Am7(9)
Pode ser vista  nos rondar          não precisa se assustar
     Cm6            G7M  E7(b13)
Isso é   glamour de amor

            Am7(9)            Cm6                   Bm7        Bbº(b13)
Venha me beijar    de uma vez     feito nuvem no ar sem aflição
Bbm6                Am7(9)        Cm6                     Bm7
     Venha a mim de corpo  e alma     libera a paz do meu coração
Bbº(b13)  Bbm6              Am7(9)          Cm6                   Bm7
               Não vá se perder    outra vez    nesse mesmo lugar
                   Bbº(b13)                           Am7(9)       Cm6
Por onde já passou          tente pensar pode até ser sonho  e tal
                            G7M 
Mas pode até ser que seja o amor

     Am7(9)       Cm6        Bm7     Bbº(b13)      G7M      E7(b13)     Bbm6


     Dm7        Em7        Cm7       F7(9)      Bb7M      Eb7(9)    G#°(b13)

  5ª |
reproducciones 294
Acordes para:
    Composição: Djavan Colaboración y revision:
    • Gilson Feitosa
    • João Moreira
    • Ricardo Martinelli

    0 comentarios

    mostrar más comentarios

    ¿Conseguiste tocar?

    10 tocaron 2 aún no

    ¡Graba un vídeo tocando Flor do Medo y envianoslo!

    00:00 / 00:00
    outros vídeos desta música
    repetir qualidade Automático
    Outros vídeos desta música
    00:00 / 00:00
    Automático
    OK