Cifra Club

Lambada de Serpente

Djavan

Cifrado: Principal (guitarra y guitarra eléctrica)
Quer fazer aulas de música com a gente? Responda essas perguntas
e nos ajude nesse projeto! →
tono: A
Intro: (F#m7(11)  F#m7(11)/C#  E ) 6x



Parte I:

     F#m7(11)      F#m7(11)/C#    E
Cui--dar     do pé de          mi---lho
          F#m7(11)      F#m7(11)/C#  E
Que demo----------ra na semen-----------te

    F#m7(11)           F#m7(11)/C#     E
Meu pai      dis--se: "Meu         fi---lho
            F#m7(11)      F#m7(11)/C#      E
Noite fri-----------a, tempo          quen---te"



Refrão: 

    A(#11)           E7M/G#
Lam-bada  de serpen---------te
           F#m7
A trai-ção      me enfeitiçou

E       A(#11)               E7M/G#
   Quem tem    a--mor ausen---------te
         F#m7              E
Já viveu      a  minha dor


Parte II:

   F#m7(11)     F#m7(11)/C#      E
Do chão    da minha         ter----ra
           F#m7(11)      F#m7(11)/C#  E
Um lamen-----------to de corren----------te

   F#m7(11)       F#m7(11)/C#       E
Um grão     de pé de          guer----ra
           F#m7(11)         F#m7(11)/C#      E
Pra colher          den--te por         den----te


Refrão:
    A(#11)           E7M/G#
Lam-bada  de serpen---------te
           F#m7
A trai-ção      me enfeitiçou

E       A(#11)               E7M/G#
   Quem tem    a--mor ausen---------te
         F#m7               F#m7(11) F#m7(11)/C# E
Já viveu      a  minha dor



Dedilhado Parte I e II

   F#m7(11)  F#m7(11)/C#  E       E
E|--------0---------0-----------0-------0-----|
B|------0---------0-----------0-------0-------|
G|----3---------3-----------1-------1---------|
D|--4---------------------2-------------------|
A|------------4-------------------------------|
E|--------------------------------0-----------|

Dedilhado Refrão:
    A(#11)              E7M/G#
E|--------0---------0---------0--------0------|
B|------4---------4---------4--------0--------|
G|----6---------6---------4--------4----------|
D|--7---------7---------6--------6------------|
A|--------------------------------------------|
E|--------------------------------------------|

    E       E
E|--------0-------0-----|
B|------0-------0-------|
G|----1-------1---------|
D|--2-------------------|
A|----------------------|
E|----------0-----------|
Composición de Cacaso / Djavan
Colaboración y revisión:
  • Gabriel Peixoto
  • Clayson Alcides
  • Carlexson Sena
2.204 vistas
  • Simplificar cifrado
    • ½ Tono
    • A
    • Bb
    • B
    • C
    • Db
    • D
    • Eb
    • E
    • F
    • F#
    • G
    • Ab
  • Agregar a la lista

    0 comentarios

    Ver todos los comentarios

    ¿Lograste tocar?

    21 Tocaron 2 Aún no

    ¡Graba un video tocando Lambada de Serpente y envíanoslo!

    00:00 / 00:00
    Outros vídeos desta música
    Repetir Calidad Automático
    Outros vídeos desta música
    00:00 / 00:00
    Automático
    OK