Cifra Club

Aprenda

Se

Djavan

Tab de bajo: Principal
(intro)

(repete 4x)

D----------------              D------0-----------
A 0-0-5---------              A 0-0--------------
E-----------2-2-0             E------------2-2-0
 
Você disse que não sabe se não

D------------------------------------------------------- 
A------0---0----5-------------------------------------
E---------------------------------------------2--2--2--

mas também não tem certeza que sim

D-----------------------------------------------------
A-----0---0-----5------------------------4---4-----4
E------------------------------------------------------

Quer saber quando é assim

D----------------------------------
A-5-5------------------------------
E-----------4---------2---------4-

Deixa vir do coração

D---------------------------------
A-5 --------4-2-----0----2------
E---------------------------------

Você sabe que eu só penso em você

D------------------------------------------------------- 
A------0---0----5-------------------------------------
E---------------------------------------------2--2--2--
Você diz que vive pensado em mim

D-----------------------------------------------------
A-----0---0-----5------------------------4---4-----4
E------------------------------------------------------

pode ser se é assim

D----------------------------------
A-5-5------------------------------
E-----------4---------2---------4-

Você tem que largar a mão do não
D-------------------------------------
A-5-----------------------4---------
E-------------------------------------

Soltar essa louca arder paixão
D-----------------------------------
A-5---------------------4----------
E-----------------------------------

Não há como doer pra decidir 
D-----------------------------------
A-5---------------------4----------
E-----------------------------------

Só dizer sim ou não
D-----------------------------------
A-2---------------------------------
E-----------------------------------

Mas você adora um se
D---------------------------------
A-5 --------4-2-----0--------1--
E---------------------------------

1x

D----------------              D------0-----------
A 0-0-5---------              A 0-0--------------
E-----------2-2-0             E------------2-2-0

  Eu levo a serio mas você disfarça 
D------------------------------------------
A-0--0----5-------------------------------
E-----------------------------2-2--------0-

Você me diz a beça eu nessa de horror
D------------------------------------------
A-0--0----5-------------------------------
E-----------------------------2-2--------0-

E me remete ao frio que vem lá do sul
D------------------------------------------
A-0--0----5-------------------------------
E-----------------------------2-2--------0-

Insiste em zero a zero eu quero um a um
D------------------------------------------
A-0--0----5-------------------------------
E-----------------------------2-2--------0-

Sei lá o que te da não quer meu calor
D------------------------------------------
A-0--0----5-------------------------------
E-----------------------------2-2--------0-

São Jorge por favor me empresta o dragão

D------------------------------------------
A-0--0----5-------------------------------
E-----------------------------2-2--------0-

Mais fácil aprender japonês em braile 
D------------------------------------------
A-0--0----5-------------------------------
E-----------------------------2-2--------0-

Do que você decidir  se da ou não
D------------------------------------------
A-0--0----5-------------------------------
E-----------------------------2-2--------0-

(repete tudo)
Composição de Djavan
Colaboración y revision:
  • Igor Leal
96 reproducciones

0 comentarios

Ver todos os comentários
00:00 / 00:00
outros vídeos desta música
repetir qualidade Automático
Outros vídeos desta música
00:00 / 00:00
Automático
OK