Cifra Club

Sina

Djavan

Acordes: Principal
reproducciones 3.346
Tono: E
(intro 2x)

          A                       D/A
E|---------------------------------------------------|
B|-------2-----------------------3-------------------|
G|-------2-----------------------2-------------------|
D|---4---2-------2-----------2---4-------4-----------|
A|-0---0-0-----0---0-0-----0---0-0-----0---0-0-------|
E|---------------------------------------------------|


(dicas)

          A                       D/A
E|---------------------------------------------------
B|-------2-----------------------3-------------------
G|-------2-----------------------2-------------------
D|---4---2-------2-----------2---4-------4-----------
A|-0---0-0-----0---0-0-----0---0-0-----0---0-0-------
E|---------------------------------------------------


E|---------------------------------------------------
B|---------------------------------------------------
G|---------------------------------------------------
D|---------------------------------------------------
A|-----0-0---------0-0---------0-0---------0-0-------
E|---------------------------------------------------


E|---------------------------------------------------
B|---------------------------------------------------
G|---------------------------------------------------
D|---4-----------2-----------2-----------4-----------
A|-0---0-0-----0---0-0-----0---0-0-----0---0-0-------
E|---------------------------------------------------


(primeira parte)
A            D/A
   Pai e mãe, ouro de mina
A          G#m7(11)   C#7(9-)
   Coração, desejo  e  sina
 F#m7        C#m7           D7M
   Tudo mais, pura rotina, jazz
        D#°
   Tocarei seu nome prá poder

   A
falar de amor
D/A               A
   Minha princesa, art-nouveau
G#m7(11) C#7(9-)  F#m7
   Da natureza,        tudo o mais
C#m7           D7M  D#°
   Pura beleza, jazz

(primeira parte)


          A                       D/A
E|---------------------------------------------------
B|-------2-----------------------3-------------------
G|-------2-----------------------2-------------------
D|---4---2-------2-----------2---4-------4-----------
A|-0---0-0-----0---0-0-----0---0-0-----0---0-0-------
E|---------------------------------------------------


          A                       G#m7(11)    C#7(9-)
E|---------------------------------------------------
B|-------2-----------------------2-----------3-------
G|-------2-----------------------4-----------4-------
D|---4---2-------2-----------2---4-------4---3-------
A|-0---0-0-----0---0-0-----0---0-------------4-------
E|-------------------------------4-----4---4---------


          F#m7                    C#m7
E|---------------------------------------------------
B|-------2-----------------------5-------------------
G|-------2-----------------------4-------------------
D|---3---2-------2-----------2---2-------2-----------
A|-4---4-------------------------4-----4---4-4-------
E|-------2-----2---2-2-----2---2---------------------


          D7M                     D#º
E|-------2-----------------------2-------------------
B|-------2-----------------------1-------------------
G|-------2-------2-----------2---2-------2-----------
D|---2---0-----0---0-0-----0---0-1-----1---1-1-------
A|-4---4---------------------------------------------
E|---------------------------------------------------


(segunda parte)
         E4(7/9)            D4(7/9) D7(9) C#7(9+) C#7(9-/13-) F#m7
A luz de um grande prazer é irre___medi___ável   neon
           E4(7/9)            D4(7/9)     E4(7/9)
Quando o grito do prazer açoitar   o ar, reveillon

(segunda parte)


     F#m7
E|---------------------------------------------------
B|--2------------------------------------------------
G|--2------------------------------------------------
D|--2---------2-----------2-----------2--------------
A|---------------------------------------------------
E|--2-2-----2---2-2-----2---2-2-----2---2------------


(refrão 2x)
A                D/A
   O luar, estrela do mar
              A                G#m7(11)     C#7(9-)
   O sol e o dom, quiçá, um dia    a fúria
           F#m7
   Desse front virá lapidar
C#m7                    D7M
   O sonho até gerar o som
              E4(7/9)
   Como querer caetanear o que há de bom

(refrão)

                    A             D/A
E|---------------------------------------------------
B|-----------------2-------------3-------------------
G|-----------------2-------------2-------------------
D|-----------------2---------2---4-------4-----------
A|-----------------0-0-----0---0-0--x--0---0-0-------
E|----------------------------------x----------------


          A                       D/A
E|---------------------------------------------------
B|-------2-----------------------3-------------------
G|-------2-----------------------2-------------------
D|---4---2-------2-----------2---4-------4-----------
A|-0---0-0--x--0---0-0-----0---0-0--x--0---0-0-------
E|----------x-----------------------x----------------


          A                       G#m7(11)    C#7(9-)
E|---------------------------------------------------
B|-------2-----------------------2-----------3-------
G|-------2-----------------------4-----------4-------
D|---4---2-------2-----------2---4-------4---3-------
A|-0---0-0--x--0---0-0--x--0---0----x--------4-------
E|----------x-----------x--------4--x--4---4---------


          F#m7                    C#m7
E|---------------------------------------------------
B|-------2-----------------------5-------------------
G|-------2-----------------------4-------------------
D|---3---2-------2-----------2---2-------2-----------
A|-4---4----x--------------------4--x--4---4-4-------
E|-------2--x--2---2-2-----2---2----x----------------


          D7M                     E4(7/9)
E|-------2-----------------------2-------------------
B|-------2-----------------------3-------------------
G|-------2-------2-----------2---2-------2-----------
D|---2---0--x--0---0-0-----0---0-2--x--2---2-2-------
A|-4---4----x-----------------------x----------------
E|---------------------------------------------------


(repete tudo)
Acordes para:
    Composición: DjavanColaboración y revision:
    • josé peixoto
    • lucas paulino

    0 comentarios

      mostrar mas comentarios

      ¿Conseguiste tocar?

      43tocaron1aún no

      ¡Grave un vídeo tocando Sina y envie para nosotros!

      00:00 / 00:00
      outros vídeos desta música
      repetirqualidadeautomática
      Outro vídeos desta música
        00:00 / 00:00
        automática
        Capítulos
        • Início
        • Tocando trecho da música
        • Acordes da introdução
        • Tocando introdução
        • Ensinando ritmo da introdução
        • Acordes da primeira parte
        • Tocando primeira parte
        • Ensinando ritmo da primeira parte
        • Acordes do refrão
        • Tocando segunda parte
        • Ensinando ritmo da segunda parte
        • Tocando refrão
        • Ensinando ritmo do refrão
        • Encerramento
        OK