Cifra Club

Sorri

Djavan

Cifrado: Principal (guitarra y guitarra eléctrica)
tono: A
[Intro] Aº6(7M)  A7M(9)  Bm7  Cº(13-) 
        C#m7  Cº(13-)  Cm6  Bm7  D/E

   A°6(7M) A7M(9)
E|---5---------4-----4----------------------|
B|---4---------2-----2----------------------|
G|---5---------4-----4----------------------|
D|---4-------2-----2------------------------|
A|---------0-----0--------------------------|
E|-5----------------------------------------|

   Bm7    C°(13-)  C#m7 
E|------------4--------4-7-5----------------|
B|-----3------4--------5------5-------------|
G|-----2----2--------4--------4-------------|
D|---4------------------------6-------------|
A|-2------3--------4----------4-------------|
E|------------------------------------------|

   C°(13-)  Cm6 
E|-------4----3-----------------------------|
B|-----4------4--4--------------------------|
G|---2--------2-----------------------------|
D|------------------------------------------|
A|-3--------3------3------------------------|
E|------------------------------------------|

   Bm7
E|---------2-2------------------------------|
B|-------3-----2h3p2---2--------------------|
G|-----2-------------2----------------------|
D|---4--------------------------------------|
A|-2-----------2----------------------------|
E|------------------------------------------|

[Primeira Parte]

   A7M
E|------------------------------------------|
B|---2--2-----------------------------------|
G|---1--1-----------------------------------|
D|---2--2-----------------------------------|
A|-0----------------------------------------|
E|--------0-0-------------------------------|

   A6°(7M)
E|--4--4------------------------------------|
B|--4--4------------------------------------|
G|--5--5------------------------------------|
D|------------------------------------------|
A|------------------------------------------|
E|5------5-5--------------------------------|

   A7M    Bm7    C#m7 C°(13-)
E|-----0----2------4----4-------------------|
B|---0-2----3------5----4-------------------|
G|---1-1----2------4----2-------------------|
D|------------------------------------------|
A|--------2---2--4----3---3-----------------|
E|-0----------------------------------------|

  Bm7          Gm6   F#7
E|---2---2-2--------------------------------|
B|---3---3-3-----3-----2--------------------|
G|---2---2-2-----3-----3--------------------|
D|---------------2-----2--------------------|
A|-2-----2-2--------------------------------|
E|-------------3-----2---2------------------|

    A7M                     Aº6(7M)
Sorri quando a dor te torturar
                    A7M  Bm7
E a saudade atormentar
         C#m7  Cº(13-)     Bm7       Gm6  F#7
Os teus dias          tristonhos, vazi____os

[Segunda Parte]

   Bm7
E|---2-2--------2-2-2-----------------------|
B|---3-3--------3-3-3-----------------------|
G|---2-2--------2-2-2-----------------------|
D|------------------------------------------|
A|-2----------2-----------------------------|
E|-------2-2------2-2-----------------------|

   Dm6
E|---5---------5-----5-5--------------------|
B|---6-6-----6-------6-6--------------------|
G|---4-----4---------4-4--------------------|
D|------------------------------------------|
A|-5-----5-----5---5-----5-5----------------|
E|------------------------------------------|

   A7M
E|------------------------------------------|
B|---2--2-----------------------------------|
G|---1--1-----------------------------------|
D|---2--2-----------------------------------|
A|-0----------------------------------------|
E|--------0-0-------------------------------|

   Gm6   F#7    F#m6
E|------------------------------------------|
B|---3---2--2-----2---------2---------------|
G|---3---3--3-----2-2-----2-----------------|
D|---2---2--2-----1-----1-------------------|
A|------------------------------------------|
E|-3-----2--2---2-----2-------2-------------|

   E6(9-)
E|------------------------------------------|
B|---2-2---2---2----------------------------|
G|---1-1---1---1----------------------------|
D|---3-3---3---3----------------------------|
A|------------------------------------------|
E|-0-----0---0------------------------------|

    Bm7                 Dm6
Sorri quanto tudo terminar
                     A7M
Quando nada mais restar
    Gm6            F#7  F#m6    E6(9-)
Do teu sonho encanta___dor  sorri

[Primeira Parte com variação na letra]

A7M                        Aº6(7M)
    Quando o sol perder a luz
                 A7M  Bm7
E sentires uma cruz
     C#m7    Cº(13-)
Nos teus ombros
    Bm7      Gm6  F#7
Cansados, dori___dos

[Segunda Parte com variação na letra]

    Bm7                   Dm6
Sorri vai mentindo a tua dor
                      A7M
E ao notar que tu sorris
      Gm6    F#7  F#m6
Todo mundo irá supor
    E6(9-)
Que és    feliz

[Solo] A7M  Aº6(7M)  A7M  Bm7 
       C#m7  Cº(13-)  Bm7  Gm6  F#7

E|-----5---5-------5------------------------|
B|-2/5-------5---5---5----------------------|
G|------------------------------------------|
D|------------------------------------------|
A|-------0----------------------------------|
E|-------------0----------------------------|

E|-4-4-------------------4--7-8-------------|
B|-----4-4-------------4--------------------|
G|---------5-5-------5----------------------|
D|-------------6-6h7------------------------|
A|---0--------------------------------------|
E|------------------------------------------|

E|------------------------------------------|
B|-7/9----7-9-10--7-9-10p9------------------|
G|-----6--6-6-6---9-9-8---------------------|
D|------------------------------------------|
A|------------------------------------------|
E|-----7----------9---8---------------------|

E|-6---7--9--10--6--------------------------|
B|------------------7h8-7-------------------|
G|-6---7--9--11--7--------------------------|
D|-----------9---5--9-----------------------|
A|------------------------------------------|
E|-----7--7---------------------------------|

[Segunda Parte com variação]

    Bm7                   Dm6
Sorri vai mentindo a tua dor
                      A7M
E ao notar que tu sorris
      Gm6    F#7  F#m6
Todo mundo irá supor
    E6(9-)   A7M
Que és    feliz

   A7M
E|------------------------------------------|
B|---2--2-----------------------------------|
G|---1--1-----------------------------------|
D|---2--2-----------------------------------|
A|-0----------------------------------------|
E|--------0-0-------------------------------|

   Bm7   A°6(7M)  A6(7M/9)
E|---2---4----------------------------------|
B|---3---4--------2-------------------------|
G|---2---5--------1-------------------------|
D|----------------4-------------------------|
A|-2--------------0-------------------------|
E|-------5----------------------------------|

  Bm7     Aº6(7M)  A6(7M/9)
Smi______le
00:00 / 00:00
Otros videos de esta canción
Repetir
Otros videos de esta canción
Composición de Charles Chaplin / G. Parsons. / J. Turner / João de Barro
Colaboración y revisión:
1.542 vistas
  • Simplificar cifrado
    • ½ Tono
    • A
    • Bb
    • B
    • C
    • Db
    • D
    • Eb
    • E
    • F
    • F#
    • G
    • Ab
  • Agregar a la lista

    0 comentarios

    Ver todos los comentarios

    ¿Lograste tocar?

    16 Tocaron 5 Aún no

    ¡Graba un video tocando Sorri y envíanoslo!

    00:00 / 00:00
    Capítulos
    • Início
    • Tocando a música
    • Acordes da introdução
    • Tocando introdução
    • Ensinando dedilhado da intro
    • Tocando dedilhado da intro (tablatura)
    • Acordes da primeira parte
    • Tocando a primeira parte
    • Ensinando dedilhado primeira parte
    • Acordes da segunda parte
    • Tocando segunda parte
    • Ensinando dedilhado segunda parte (parte 1)
    • Ensinando dedilhado segunda parte (parte 2)
    • Ensinando dedilhado segunda parte (parte 3 - 5)
    • Tocando solo
    • Ensinando solo (parte 1)
    • Ensinando solo (parte 2)
    • Ensinando solo (parte 3)
    • Ensinando solo (parte 4 e 5)
    • Acordes do trecho final
    • Tocando trecho final
    • Ensinando dedilhado final
    • Encerramento
    OK