Cifra Club

Aprenda

Um Amor Puro

Djavan

Tablatura: Tablatura-instrumental (guitarra)
Tom: G
O que há dentro do meu coração. Eu tenho guardado pra te dar

E|--------------------------------------------|
B|-------------------------------------5------|
G|--9-9-9-9-9-7-10-9-7-----7-7-7-7-7-5---7-5--|
D|--------------------------------------------|
A|--------------------------------------------|
E|--------------------------------------------|

E todas as horas que o tempo tem     pra me conceder são tuas   até morrer

E|------------3-5-----------------------------|
B|--------------------------5-----------------|
G|--5---4-5-7-----7-7-7-7-5------7-5---5-7----|
D|----7------------------------7-----7-----7--|
A|--------------------------------------------|
E|--------------------------------------------|

 E a tua história, eu não sei, mas me diga só o que for bom

E|--------------------------------------------|
B|-------------------------------------5------|
G|--9-9-9-9-9-7-10-9-7-----7-7-7-7-7-5---7-5--|
D|--------------------------------------------|
A|--------------------------------------------|
E|--------------------------------------------|

Um amor tão puro que ainda nem sabe a força que tem é teu e de mais ninguém

E|------------3-5-----------------------------|
B|--------------------------5-----------------|
G|--5---4-5-7-----7-7-7-7-5------7-5---5-7----|
D|----7------------------------7-----7-----7--|
A|--------------------------------------------|
E|--------------------------------------------|

Te adoro em tudo, tudo, tudo quero mais que tudo, tudo, tudo

E|--------------------------------3--------------|
B|--------5-3-5-3-5-3---------------5-3-5-3-5-3--|
G|----4-5---------------------4-5----------------|
D|--7---------------------7-7--------------------|
A|-----------------------------------------------|
E|-----------------------------------------------|

Te amar sem limites  viver uma grande história

E|-----------------------------------|
B|--5--------------------------------|
G|----7-5-4-------------------4------|
D|----------7-7-----7-7-7-7-7---5-5--|
A|-----------------------------------|
E|-----------------------------------|

Te adoro em tudo, tudo, tudo quero mais que tudo, tudo, tudo

E|--------------------------------3--------------|
B|--------5-3-5-3-5-3---------------5-3-5-3-5-3--|
G|----4-5---------------------4-5----------------|
D|--7---------------------7-7--------------------|
A|-----------------------------------------------|
E|-----------------------------------------------|

Te amar sem limites  viver uma grande história

E|-----------------------------------|
B|--5--------------------------------|
G|----7-5-4-------------------4------|
D|----------7-7-----7-7-7-7-7---5-5--|
A|-----------------------------------|
E|-----------------------------------|

Aqui ou noutro lugar     que pode ser feio ou bonito

E|-------------------------------------------|
B|-------------------------------------------|
G|--5-5---4-5-4---5-----5-4---5-----5-4------|
D|------7-------7-----------7-----7-----7-5--|
A|-------------------------------------------|
E|-------------------------------------------|

Se nós estivermos juntos   haverá um céu     azul

E|-----------------------------------------|
B|-----------------------------------------|
G|-----------------------------------------|
D|------------10---------------5-7----5-7--|
A|--7-8-8-8-8----7-7-5-----5-7------5------|
E|-----------------------------------------|

Um amor puro não sabe a força que tem  Meu amor eu juro ser teu e de mais ninguém

E|-----------------------------------------3-------------------------|
B|--------5-5--------------------------------5--5--------------------|
G|----4-5-----------7-7-5-5-4---------4-5---------------7-7-7-5-4----|
D|--7-------------7-----------7-----7-----------------7-----------7--|
A|-------------------------------------------------------------------|
E|-------------------------------------------------------------------|

  Um    amor puro

E|------------|
B|-------5-5--|
G|---4-5------|
D|--7---------|
A|------------|
E|------------|

O que há dentro do meu coração
Compositor Djavan
Colaboración y revision:
  • Gilson Feitosa
5 reproducciones
  • Simplificar cifra
    • ½ Tom
    • A
    • Bb
    • B
    • C
    • Db
    • D
    • Eb
    • E
    • F
    • F#
    • G
    • Ab
  • Adicionar à lista

    0 comentarios

    Mostrar mais comentários
    00:00 / 00:00
    outros vídeos desta música
    repetir qualidade Automático
    Outros vídeos desta música
    00:00 / 00:00
    Automático
    OK