Cifra Club

Enchanted

Dogstar

Cifrado: Principal (guitarra y guitarra eléctrica)
Selo Cifra Club: esta cifra foi revisada para atender aos critérios oficiais da nossa Equipe de Qualidade.
tono: D
E|---0-----0-----0-----0-----0-----0-----0-----0|
B|---0-----0-----0-----0-----0-----0-----0-----0|
G|---0-----0-----0-----0-----0-----0-----0-----0|
D|-2---2/4---4/5---5/7---7/2---2/4---4/5---5/7--|
A|-2---2/4---4/5---5/7---7/2---2/4---4/5---5/7--|
E|-0---0/2---2/3---3/5---5/0---0/2---2/3---3/5--|

[Verse Riff] (Typical Punk verse with everything downpicked) X5

E|----------------------------------------------------------------|
B|----------------------------------------------------------------|
G|----------------------------------------------------------------|
D|-2-2-2-2-2-2-2-2-4-4-4-4-4-4-4-4-5-5-5-5-5-5-5-5-7-7-7-7-7-7-7-7|
A|-2-2-2-2-2-2-2-2-4-4-4-4-4-4-4-4-5-5-5-5-5-5-5-5-7-7-7-7-7-7-7-7|
E|-0-0-0-0-0-0-0-0-2-2-2-2-2-2-2-2-3-3-3-3-3-3-3-3-5-5-5-5-5-5-5-5|
PM   . . .   . . .   . . .   . . .   . . .   . . .   . . .   . . .

[Pre Chorus Riff] 1 X2

E|----------------------------------------------------------------|
B|----------------------------------------------------------------|
G|-5-5-5-5-5-5-5-5-----------------5-5-5-5-5-5-5-5----------------|
D|-5-5-5-5-5-5-5-5-2-2-2-2-2-2-2-2-5-5-5-5-5-5-5-5-2-2-2-2-2-2-2-2|
A|-3-3-3-3-3-3-3-3-2-2-2-2-2-2-2-2-3-3-3-3-3-3-3-3-2-2-2-2-2-2-2-2|
E|-----------------0-0-0-0-0-0-0-0-----------------0-0-0-0-0-0-0-0|

[Pre Chorus Riff] 2 X2 (Slowly stop the palm mute before the chorus)

E|--------------------------------|
B|--------------------------------|
G|-2-2-2-2-2-2-2-2-2-2-2-2-2-2-2-2|
D|-2-2-2-2-2-2-2-2-2-2-2-2-2-2-2-2|
A|-0-0-0-0-0-0-0-0-0-0-0-0-0-0-0-0|
E|--------------------------------|
PM . . . . . . . . . . . . . . . .

[Chorus] Riff

E|-----------------------------------------------------------------|
B|-----------------------------------------------------------------|
G|-5-5-5-5-5-5-5-5-7-7-7-7-7-7-7-7-9-9-9-9-9-9-9-9-----------------|
D|-5-5-5-5-5-5-5-5-7-7-7-7-7-7-7-7-9-9-9-9-9-9-9-9-5-5-5-5-5-5-5-5-|
A|-3-3-3-3-3-3-3-3-5-5-5-5-5-5-5-5-7-7-7-7-7-7-7-7-5-5-5-5-5-5-5-5-|
E|-------------------------------------------------3-3-3-3-3-3-3-3-|

E|--------------------------------|
B|--------------------------------|
G|-5-5-5-5-5-5-5-5-5-5-5-5-5-5-5-5|
D|-5-5-5-5-5-5-5-5-5-5-5-5-5-5-5-5|
A|-3-3-3-3-3-3-3-3-3-3-3-3-3-3-3-3|
E|--------------------------------|
00:00 / 00:00
Otros videos de esta canción
Repetir
Otros videos de esta canción
14 exhibiciones
    • ½ Tono
    • A
    • Bb
    • B
    • C
    • Db
    • D
    • Eb
    • E
    • F
    • F#
    • G
    • Ab
  • Agregar a la lista

Afinación de cifrado

Afinador online

    00:00 / 00:00
    OK