Cifra Club

Alone Again

Dokken

Cifrado: Principal (guitarra y guitarra eléctrica)
Selo Cifra Club: esta cifra foi revisada para atender aos critérios oficiais da nossa Equipe de Qualidade.
tono: F# (forma dos acordes no tom de G) Afinación: Eb Ab Db Gb Bb Eb
[Intro]

Eb|---------0-----------------|---------------3--------------|
Bb|-----------0---------------|----1----------0--------------|
Gb|-------------0-------------|------0----------2------------|
Db|---------------4-----------|---------0-0-------0----------|
Ab|-------------------0---2---|--3-------------------4/5\4---|
Eb|---0-----------------------|------------------------------|

Eb|---------0-----------------|---------------3--------------|
Bb|-----------0---------------|----1----------0--------3-----|
Gb|-------------0-------------|------0-----------0-----2-----|
Db|---------------4-----------|---------2-0------------0-----|
Ab|-------------------0---2---|--3---------------------------|
Eb|---0-----------------------|-----------3------------------|

Em                          C       D
I'd like to see you in the morning light
Em                            C       G    D
I'd like to feel you when it comes tonight
Em                   C     D
Now I'm here and I'm all alone
C         D          B  B7sus4  B  C
Still I know how it feels
      D
I'm alone again
Em                G        D  G
Tried so hard to make you see
Em                       G   D  G A9
But I couldn't find the words
Em                   G         D
Now the tears, they fall like rain

C           D           Em
I'm alone again without you
C       D           Em
Alone again without you
C       D
Alone again

Without you

Eb|---------0-----------------|---------------3--------------|
Bb|-----------0---------------|----1----------0--------------|
Gb|-------------0-------------|------0----------2------------|
Db|---------------4-----------|---------0-0-------0----------|
Ab|-------------------0---2---|--3-------------------4/5\4---|
Eb|---0-----------------------|------------------------------|

Eb|---------0-----------------|---------------3--------------|
Bb|-----------0---------------|----1----------0--------------|
Gb|-------------0-------------|------0----------2------------|
Db|---------------4-----------|---------0-0-------0----------|
Ab|-------------------0---2---|--3-------------------4/5\4---|
Eb|---0-----------------------|------------------------------|

Em                    C       D
I said stay, but you turned away
Em                    C       D
Tried to say that it was me
Em                     C       D
Now I'm here and I've lost my way
C       D          B  B7sus4  B  C
Now I know how it feels
      D
I'm alone again
Em                G        D  G
Tried so hard to make you see
Em                       G   D  G A9
But I couldn't find the words
Em                   G         D
Now the tears, they fall like rain

C           D           Em
I'm alone again without you
C       D           Em
Alone again without you
C       D           B  B7sus4  B
Alone again without you
C       D           Em
Alone again without you

[Solo]

Em                G        D  G
Tried so hard to make you see
Em                       G   D  G A9
But I couldn't find the words
Em                   G         D
Now the tears, they fall like rain

C           D           Em
I'm alone again without you
C       D           Em
Alone again without you
C       D   Em
Alone again
C       D   B  B7sus4  B
Alone again
C       D
Alone again

Without you

Eb|--------------0------------|-----------0------------------|
Bb|------------0---0----------|-----------0------------------|
Gb|----------0-------0--------|-----------0------------------|
Db|-------4-------------4-----|-----4------------------------|
Ab|---------------------------|------------------------------|
Eb|---0-----------------------|-----------0------------------|
Otros videos de esta canción
    3.802 exhibiciones
    • Simplificar cifrado
      • ½ Tono
      • A
      • Bb
      • B
      • C
      • Db
      • D
      • Eb
      • E
      • F
      • F#
      • G
      • Ab
    • Agregar a la lista

    Afinação da cifra

    Afinador online

      Ops (: Contenido disponible solo en portugués.
      OK