Cifra Club

K 336

Domenico Scarlatti

Cifrado: Principal (guitarra y guitarra eléctrica)
Selo Cifra Club: esta cifra foi revisada para atender aos critérios oficiais da nossa Equipe de Qualidade.
tono: E
E||--5--------|--2--------|-----------|-----------|--3-2-0-------|-----------|
B||-----------|-----------|--3--------|--0--------|--------3-2-0-|-----------|
G||-----------|-----------|-----------|-----------|--------------|--2--0-----|
D||-----4--0--|-----0-----|-----------|-----------|--------------|-----------|
A||-----------|--------2--|-----2-----|-----------|--------------|--0--2--4--|
E||-----------|-----------|--------3--|-----3--0--|--0---2---3---|-----------|

7 E  S S S S    S S S S S T  T    S S S S S T  T    S S S S S T  T
E|-------------|--2---0-----2h-3-|--2---0-----2h-3-|--2---0-----2h-3-|
B|---------3---|E|---------------|--|E|---------------|--|E|---------------|--|
G|-----2-----2-|----2---2---2----|----2---2---2----|----2---2---2----|
D|--4----4-----|--0--------------|--0--------------|--0--------------|
A|--5----------|------4---0------|------4---0------|------4---0------|
E|-------------|E|---------------|--|E|---------------|--|E|---------------|--|

11 S S S S E     S S S S S S    S S S S S S    S S S S S S    S S S S S S
E|---2-0--------|--3---2---5---|--3---2---5---|--3---2---5---|--3-2-0-5-3-2-|
B|-------3-2-3--|----0---0---0-|----0---0---0-|----0---0---0-|--------------|
G|--------------|--------------|--------------|--------------|--------------|
D|---0----------|--2---1---4---|--2---1---4---|--2---1---4---|--2-----------|
A|--------------|--------------|--------------|--------------|--------------|
E|--------------|--------------|--------------|--------------|------0-------|

16 S S S S S S    S S S S S S    S S S S S S    S S S S S S    S S S S S S
E|---0-----------|--3-----------|--3-----------|----------0-2-|--3---2---0---|
B|-----3-2-0---0-|----0---0---0-|----0---0---0-|----0-2-3-----|----5---3---2-|
G|-----------3---|--3---3---3---|--3---3---3---|--3-----------|--------------|
D|E|---------------||--------------|--------------|----------4---|--2---0-------|
A|E|---------------||--------------|--------------|--------------|----------4---|
E|---0---2---3---|--0---2---3---|--0---2---3---|--2---2-------|--------------|

21 S S S S S S    S S S S S S    S S S S S S    S S S S S S    S S S S S S
E|---2-0---------|--0-----------|--0-----------|------------0-|--2---0-------|
B|-------3-2-0---|--0-----------|--0-----------|------0-2-3---|----3---2-3-0-|
G|-------------2-|--1-2-1-2-1-2-|--1-2-1-2-1-2-|--1-2---------|--------------|
D|-----------0---|--0---0---0---|--0---0---0---|--0---0---0---|--------------|
A|---2---4-------|--2---2---2---|--2---2---2---|--------------|--------------|
E|E|---------------||--0---0---0---|--0---0---0---|--0---0---0---|--0---0---0---|

26 S S S S S T  T    S S S S S T  T    S S S S S T  T    S S S S S S
E|E|---------------|---|E|---------------|--|E|---------------|--|--------------|
B|---2---0-----2h-3-|--2---0-----2h-3-|--2---0-----2h-3-|--2---3---5---|
G|E|---------------|---|E|---------------|--|E|---------------|--|----2---4---6-|
D|-----2---2---2----|----2---2---2----|----2---2---2----|--------------|
A|---0--------------|--0--------------|--0--------------|--0---2---4---|
E|-------4---0------|------4---0------|------4---0------|--------------|

30 S S S S S S    S S S S S S    S S S S S S    S S S S S S    S S S S S S
E|---2---4---5---|--7---0-------|------0-------|------0-------|------0-------|
B|-----3---5---7-|----9---0---0-|--0-------2---|--0-------2---|--0-------2---|
G|E|---------------||----------1---|--1-------2---|--1-------2---|--1-------2---|
D|---0---2---4---|--------------|--2-0---------|--2-0---------|--2-0---------|
A|E|---------------||--7-----------|------4-2-4-5-|------4-2-4-5-|------4-2-4-5-|
E|E|---------------||--------------|--------------|--------------|--------------|

35 S S S S S S    S S S S S S    E  E  E     S S S S S T  T    S S S S S T  T
E|-----5-4-2-0---|----4-6---0---|--2--------|E|---------------|--|E|---------------|--|
B|---0---------3-|--2-----4---2-|-----------|--2---0-----2h-3-|--2---0-----2h-3-|
G|-----------1---|--------------|-----4-----|E|---------------|--|E|---------------|--|
D|---2---4-------|--------------|--0--2-----|----2---2---2----|----2---2---2----|
A|E|---------------||--0---2---4---|-----------|--0--------------|--0--------------|
E|E|---------------||--------------|--------0--|------4---0------|------4---0------|

40 S S S S S T  T    S S S S S S    E  E  E     S S S S S T  T
E|E|---------------|---|----4-6---0---|--2--------|E|---------------|--|
B|---2---0-----2h-3-|--2-----4---2-|-----------|--2---0-----2h-3-|
G|E|---------------|---|--------------|-----4-----|E|---------------|--|
D|-----2---2---2----|--------------|--0--2-----|----2---2---2----|
A|---0--------------|--0---2---4---|-----------|--0--------------|
E|-------4---0------|--------------|--------0--|------4---0------|

44 S S S S S T  T    S S S S S T  T    S S S S S S    E  E  E     Q.
E|E|---------------|---|E|---------------|--|----4-6---0---|--2--------|----------| |
B|---2---0-----2h-3-|--2---0-----2h-3-|--2-----4---2-|-----------|----------| |
G|E|---------------|---|E|---------------|--|--------------|-----4-----|--2------*| |
D|-----2---2---2----|----2---2---2----|--------------|--0--2-----|---------*| |
A|---0--------------|--0--------------|--0---2---4---|-----------|--0-------| |
E|-------4---0------|------4---0------|--------------|--------0--|----------| |

49 E  E  E     E  E  E     E  E  E     E  E  E     E  E  E     S  S S S S S
E|------------|--0--0--0--|-----------|-----------|-----------|E|---------------||
B|------------|-----------|--3--3--3--|--1--1--1--|-----------|E|---------------||
*--2--2--2--|--0--0--0--|-----------|-----------|--3--3--3--|--2h-3-2-0-----|
*-----------|-----------|--3--3--3--|--2--2--2--|--0--0--0--|-----------3-2-|
E|---0--------|--0--------|--0--------|--0--------|--0--------|--0----2---4---|
B|------------|-----------|-----------|-----------|-----------|E|---------------||

55 E  S  S E      E   E   E     E  E  E     E  E  E     E  E  E     E  S  S S S
E|--------------|--------------|--8--8--8--|--6--6--6--|--5--5--5--|--5--3p-1-0---|
B|--------------|--------------|-----------|-----------|-----------|--0---------3-|
G|--------------|--10--10--10--|--9--9--9--|--7--7--7--|--5--5--5--|--0-----------|
D|---3--2h-3-0--|---0----------|-----------|-----------|--3--------|--------------|
A|---5----------|--------------|-----------|--7--------|-----------|--------------|
E|--------------|--------------|--8--------|-----------|-----------|--------------|

61 E  S S E     E  E  E     E  E  E      E   E   E     E  E  E     E  E  E
E|---0----0----|--5--5--5--|--5--5--5--|--10--10--10--|--8--8--8--|--7--5--7--|
B|------3---1--|-----------|--8--8--8--|--------------|-----------|-----------|
G|-------------|-----------|-----------|--10--10--10--|--9--9--9--|--7--5--7--|
D|-------------|-----------|-----------|--------------|-----------|--0--------|
A|---3---------|--0--------|--0--------|---0----------|--0--------|-----------|
E|-------------|-----------|-----------|--------------|-----------|-----------|

67 E  E  E     E  S S E     S S S S S S    S S S S S S    S S S S S S
E|---5--4--5--|--| L--4-2-0--|------0-------|------0-------|------0-------|
B|------------|--0---------|--0-------1---|--0-------1---|--0-------1---|
G|---5--4--5--|------------|--1-------2---|--1-------2---|--1-------2---|
D|---3--------|--2---------|--2-0-------0-|--2-0-------0-|--2-0-------0-|
A|------------|------------|------3-2-3---|------3-2-3---|------3-2-3---|
E|------------|------------|--------------|--------------|--------------|

72 S S S S E     S  S S S S S    S  S S S S S    S  S S S S S    S S S S E
E|--------------|--0----5---2---|--0----5---2---|--0----5---2---|--0----------|
B|---0----------|--2--------3---|--2--------3---|--2--------3---|----3-2-0----|
G|-----2-1------|--2p-0-------0-|--2p-0-------0-|--2p-0-------0-|--2-------2--|
D|---2-----4-2--|-------4-2-4---|-------4-2-4---|-------4-2-4---|-------------|
A|--------------|E|---------------||E|---------------||E|---------------||-------------|
E|--------------|E|---------------||E|---------------||E|---------------||-------------|

77 S S S S S S    S S S S S S    S S S S S S    S S S S S S    S S S S S T  T
E|---2---0---3---|--2---0---3---|--2---0---3---|--2-0---------|E|---------------|--|
B|E|---------------||--------------|--------------|------3-2-0---|--0---------0h-1-|
G|-----2---2---2-|----2---2---2-|----2---2---2-|------------2-|------2----------|
D|---0-------2---|--0-------2---|--0-------2---|--0---2---4---|----0---0-0------|
A|-------4-------|------4-------|------4-------|--------------|E|---------------|--|
E|E|---------------||--------------|--------------|--------------|--3---2----------|

82 S S S S S T  T    S S S S S T  T    S S S S S S    S S S S S S
E|E|---------------|---|E|---------------|--|--------0---2-|--0-3-2-0-----|
B|---0---------0h-1-|--0---------0h-1-|--0-3-2---3---|----------3-2-|
G|-------2----------|------2----------|--------------|--------------|
D|-----0---0-0------|----0---0-0------|--------------|--------------|
A|E|---------------|---|E|---------------|--|--------------|------0---0---|
E|---3---2----------|--3---2----------|--3---0---2---|--3-----------|

86 S S S S S T  T    S S S S S T  T    S S S S S T  T    S S  S S  S S
E|---2---0-----2h-3-|--2---0-----2h-3-|--2---0----------|----7-10--------|
B|E|---------------|---|E|---------------|--|------------7h-8-|--7------9-10-7-|
G|-----2---2---2----|----2---2---2----|----2---2--------|E|---------------|-|
D|---0--------------|--0--------------|--0---------7----|--0-------------|
A|-------4---0------|------4---0------|------4---0------|-------7----9---|
E|E|---------------|---|E|---------------|--|E|---------------|--|E|---------------|-|

90 E  E  E     S S S S S T  T    S S S S S T  T    S S S S S T  T
E|---7--------|--2---0-----2h-3-|--2---0-----2h-3-|--2---0-----2h-3-|
B|------5-----|E|---------------|--|E|---------------|--|E|---------------|--|
G|---0--------|----2---2---2----|----2---2---2----|----2---2---2----|
D|------7-----|--0--------------|--0--------------|--0--------------|
A|---------0--|------4---0------|------4---0------|------4---0------|
E|------------|E|---------------|--|E|---------------|--|E|---------------|--|

94 S S S S S S    S S E  S T  T    S S S S S S    E  E  E     Q.
E|---2-----0-----|------0---------|--2-5---0-----|-----0-----|----------| |
B|-----3-2---3---|--0--------3h-5-|------2---3---|--0--------|--3-------| |
G|-------------2-|----0-2---------|------------2-|-----2-----|---------*| |
D|---0---2---4---|--5-------------|--0---2---4---|--5--------|--0------*| |
A|E|---------------||---------0------|--------------|--------0--|----------| |
E|E|---------------||E|---------------|-|--------------|-----------|----------| |

Duration Legend
E|---------------|
Q - quarter note
E - 8th note
S - 16th note
T - 32nd note
. - dotted note

Tablature Legend
E|---------------|-
h - hammer on
L - tied note
p - pull off

E|---| ---|
B|---| ---|
G|*--| --*|  repeat the section
D|*--| --*|
A|---| ---|
E|---| ---|
Otros videos de esta canción
    7 exhibiciones
      • ½ Tono
      • A
      • Bb
      • B
      • C
      • Db
      • D
      • Eb
      • E
      • F
      • F#
      • G
      • Ab
    • Agregar a la lista

    Afinación de cifrado

    Afinador online

      OK