Cifra Club

Ilha

Dona Cislene

Cifrado: Principal (guitarra y guitarra eléctrica)
tono: C
Afinação em Drop D. (D A D G B E)
Intro 
E|-----------------------------------------|
B|-----------------------------------------|
G|-----------------------------------------|
D|10-9-10-9--X-X-X-------------------------| (9x)
A|10-9-10-9--X-X-X-------------------------|
D|10-9-10-9--X-X-X-------------------------|

E|-----------------------------------------|
B|-----------------------------------------|
G|-----------------------------------------|
D|10-9-10-9--X-X-X--10-9-------------------|
A|10-9-10-9--X-X-X--10-9-------------------|
D|10-9-10-9--X-X-X--10-9-------------------|
"Andam por Brasília atrás do que fazer..." 

E|-----------------------------------------|
B|-----------------------------------------|
G|-----------------------------------------|
D|10-0-9-0---------------------------------| (4x) 
A|10-0-9-0---------------------------------|
D|10-0-9-0---9-10-9-9-10-9-----------------|
Verso
E|-----------------------------------------|
B|-----------------------------------------|
G|-----------------------------------------|
D|10-10-10--9-9-9--5-5-5--7-7-7--3-3-3-----|
A|10-10-10--9-9-9--5-5-5--7-7-7--3-3-3-----|
D|10-10-10--9-9-9--5-5-5--7-7-7--3-3-3-----|

E|-----------------------------------------|
B|-----------------------------------------|
G|-----------------------------------------|
D|2-2-2--3-3-3--5-5------------------------|
A|2-2-2--3-3-3--5-5------------------------|
D|2-2-2--3-3-3--5-5------------------------|
(Na parte do "Relaxa seu guarda" o verso é tocado em palm mute)
Riff pré-refrão
E|-----------------------------------------|
B|-----------------------------------------|
G|----5-7b------5-7/9-7--------------------|
D|5h7------5h7-----------------------------|
A|-----------------------------------------|
D|-----------------------------------------|
Refrão
E|-----------------------------------------|
B|-----------------------------------------|
G|-----------------------------------------|
D|10-9-10-9--10-9--5-5-5--7-7-7-7-7-7------|
A|10-9-10-9--10-9--5-5-5--7-7-7-7-7-7------|
D|10-9-10-9--10-9--5-5-5--7-7-7-7-7-7------|
("Se você entendesse eu poderia explicar")
E|-----------------------------------------|
B|-----------------------------------------|
G|-----------------------------------------|
D|-----------------------------------------|
A|-----------------------------------------|
D|0-3p-0-0--0-3p-0-3p-0-7p-0-10p-----------|
Solo
E|-----------------------------------------|
B|-----------------------------------------|
G|-----------------------------------------|
D|-----------------------------------------|(2x)
A|-------15-12-15-12-----------------------|
D|-/12-------------------------------------|
Slide tocando bem rápido...
E|-----------------------------------------|
B|-----------------------------------------|
G|-----------------------------------------|
D|-----------------------------------------|
A|-------15-12-15-0-12-15-12-0-12-15-12----|
D|-/12-------------------------------------|
Refrão Final
E|-----------------------------------------|
B|-----------------------------------------|
G|-----------------------------------------|
D|10-9-10-9--10-9--5-5-5--7-7-7-7-7-7------| (5x)
A|10-9-10-9--10-9--5-5-5--7-7-7-7-7-7------|
D|10-9-10-9--10-9--5-5-5--7-7-7-7-7-7------|
Finaliza a música com:
E|-----------------------------------------|
B|-----------------------------------------|
G|-----------------------------------------|
D|10-9-------------------------------------|
A|10-9-------------------------------------|
D|10-9-------------------------------------|
00:00 / 00:00
Otros videos de esta canción
Repetir
Otros videos de esta canción
Composición de Bruno Alpino
Colaboración y revisión:
  • Nathan
21 vistas
    • ½ Tono
    • A
    • Bb
    • B
    • C
    • Db
    • D
    • Eb
    • E
    • F
    • F#
    • G
    • Ab
  • Agregar a la lista

    0 comentarios

    Ver todos los comentarios

    ¿Lograste tocar?

    0 Tocaron 1 Aún no

    ¡Graba un video tocando Ilha y envíanoslo!

    00:00 / 00:00
    OK