Cifra Club

By your side

Donavon Frankenreiter

Tab de bajo: Principal
INTRODUÇÃO: SÓ TECLADO!

VERSO 1:
 
   G                                                      Em                               
----------------------------------------------------------------------------------------------------------
-------------5--------------------------------------------------------------------------------------------
----------5--------5-------------5--7--5s7-------7--7--9--10-----------------------------------------
---3------------------3----5s7----------------0------------------0----0--0----------------------------

   G                                                                                  Em                                  
----------------------------------------------------------------------------------------------------------
-------------5--------------------------------------------------------------------------------------------
----------5--------5-------------5--7--5s7-------10--10--9--7---------------------------------------
---3------------------3----5s7----------------0-------------------0----0--0---------------------------

    G                                                     Em                               
----------------------------------------------------------------------------------------------------------
-------------5--5-----------------------------------------------------------------------------------------
----------5--------5-------------5--7--5s7-------7--7--9--10-----------------------------------------
---3------------------3----5s7----------------0------------------0----0--0----------------------------

   G                                                                                  Em                                  
----------------------------------------------------------------------------------------------------------
-------------5--------------------------------------------------------------------------------------------
----------5--------5-------------5--7--5s7-------10--10--9--7---------------------------------------
---3------------------3----5s7----------------0-------------------0----0--0---------------------------


PREPARAÇÃO PARA O REFRÃO:

   C                         D                              
----------------------------------------------------------------------------------------------------------
----------------------------------------------------------------------------------------------------------
-----3------3--3-------3-------3--4--5----0-5-5----0--5----0--5------------------------------------
---3------3-----------3------3---------------------------------------------------------------------------

REFRÃO:

                G              F              C                              
----------------------------------------------------------------------------------------------------------
----------------------------------------------------------------------------------------------------------
--------------------------------------3----0--3--3--------------------------------------------------------
---0--1--2--3----3--2--1----1--3-----------------------------------------------------------------------


VERSO 2: IDEM VERSO 1


PREPARAÇÃO PARA O REFRÃO: IDEM 


REFRÃO: IDEM


PREPARAÇÃO PRO SOLO:
   D
----------------------------------------------------------------------------------------------------------
---------------------------------3------------------------------------------------------------------------
---5---5-5-5-5-5-5-5-5-5-5---------------------------------------------------------------------------
----------------------------------------------------------------------------------------------------------


SOLO VIOLÃO:

   F          Em            Am         Am                  F            Em        Am                Am
------------------------------------------------------------------------------------------------------------
---------------------------------5--------------------------------------------------------------------------
-------------------------------5----5----------------------------------------------------------------------
--1---1-1---0---0-0-------5----------5----5--5--3--1---1-1---0---0-0---5---0-5-5---0-5---0--5-5-


    F                  Em               Am            Am             F               Em              D
------------------------------------------------------------------------------------------------
-------------------------2----------------7-7---------7---------------------------------------
---------------------------2------------7-------7---7---7--------------------------------5----
---1---0-1-1----1-0-------0-0----5------------5--------5--1--0-1-1---1-0---0------------


REFRÃO: 2X
Composición de Donavon Frankenreiter
Colaboración y revisión:
  • Jota
13 vistas

0 comentarios

Ver todos los comentarios
00:00 / 00:00
Otros videos de esta canción
Repetir Calidad Automático
Otros videos de esta canción
00:00 / 00:00
Automático
OK