Cifra Club

Fool Intro

Donavon Frankenreiter

Cifrado: Principal (guitarra y guitarra eléctrica)
tono: Bb
Now i do realize that this tab is wrong because i did it by ear, but it sounds very 
to the actual music, so have fun with it and contact me if any of you do find the real stuff 
S*,

Thanks. Peace =]



E  :--------------------------------------------------------------------|
B  :--------------------------------------------------------------------|
G  :------------------------------------5b-3----------------------------|
D  :---5-5-3h5p3--5-5-3h5p3--5-5-3h5p3----------------------------------|
A  :--------------------------------------------------------------------|
E  :--------------------------------------------------------------------|


E  :--------------------------------------------------------------------|
B  :--------------------------------------------------------------------|
G  :------------------------------------5b-3-5-3------------------------|
D  :---5-5-3h5p3--5-5-3h5p3--5-5-3h5p3----------------------------------|
A  :--------------------------------------------------------------------|
E  :--------------------------------------------------------------------|


E  :-----------------------------------x2---------------------------------|
B  :-----------------------------------x2---------------------------------|
G  :-----------------------------------x2-5b-3-5-3-3h5p3------------------|
D  :---5-5-3h5p3--5-5-3h5p3--5-5-3h5p3-x2---------------------------------|
A  :-----------------------------------x2---------------------------------|
E  :-----------------------------------x2---------------------------------|
Compositor não encontrado.
34 vistas
    • ½ Tono
    • A
    • Bb
    • B
    • C
    • Db
    • D
    • Eb
    • E
    • F
    • F#
    • G
    • Ab
  • Agregar a la lista

    0 comentarios

    Ver todos los comentarios
    00:00 / 00:00
    Outros vídeos desta música
    Repetir Calidad Automático
    Outros vídeos desta música
    00:00 / 00:00
    Automático
    OK