Cifra Club

Free

Donavon Frankenreiter

Cifrado: Principal (guitarra y guitarra eléctrica)
tono: G
[Intro] G  Em7  C  Am7
        G  Em7  C  Am7


   G              Em7
E|-7-7--7-7-7-7---7-7--7-7-7-7--------------|
B|-8-8--8-8-8-8---8-8--8-8-8-8--------------|
G|-7-7--7-7-7-7---9-9--9-9-9-9--------------|
D|-9-9--9-9-9-9---9-9--9-9-9-9--------------|
A|------------------------------------------|
E|------------------------------------------|
   ↓ ↓  ↓ ↑ ↓ ↑   ↓ ↓  ↓ ↑ ↓ ↑ 

    C                    Am7
E|-8--8---8--8--8--8-----5-5--5-5-5-5-------|
B|-8--8---8--8--8--8-----5-5--5-5-5-5-------|
G|-9--9---9--9--9--9-----5-5--5-5-5-5-------|
D|-10-10--10-10-10-10----7-7--7-7-7-7-------|
A|------------------------------------------|
E|------------------------------------------|
   ↓  ↓   ↓  ↑  ↓  ↑     ↓ ↓  ↓ ↑ ↓ ↑

[Primeira Parte]

          G                    Em7
We could let this love be the fading sky
         C                            Am
We could   drift all night until the new sun rise
G                    Em7
  Pass me a drink or     maybe two
C              Am7
One for me and one for you

[Refrão]

And we'll be
G   F7M  C 
  Fre____e
G   F7M  C 
  Fre____e
G   F7M  C 
  Fre____e
G   F7M  C 
  Fre____e

[Segunda Parte]

           G                        Em7
Here comes   corner winds and the changing' tide
          C                            Am7
We better   drop them sails and get inside
G                             Em7
  When will the weather ever let us go
    C                                  Am7
I guess we'll have to wait until the trade winds blow

When we'll be

[Refrão]

And we'll be
G   F7M  C 
  Fre____e
G   F7M  C 
  Fre____e
G   F7M  C 
  Fre____e
G   F7M  C 
  Fre____e

[Ponte]

G                Em7
  There's nothing   in between
C              D
  What we are,   what we see
G                Em7
  There's nothing   in between
C             G/B             A
  What we are,    what we see,  what we are

[Riff]

E|-15\12--12-10-----------------------------|
B|-15\12--12--------------------------------|
G|------------------------------------------|
D|------------------------------------------|
A|------------------------------------------|
E|------------------------------------------|

We are just

G                Em7
  On a life boat     sailing' home
           C                     Am7
With our drunken hearts and our tired bones
     G                Em7
Well I just take one last look around
         C                           Am7
Yeah an' every place feels like a familiar town

[Refrão]

And now we're
G   F7M  C 
  Fre____e
G   F7M  C 
  Fre____e

And don't you wanna be
G   F7M  C 
  Fre____e

From time to time a little
G   F7M  C 
  Fre____e

Hey now now
G   F7M  C 
  Fre____e

I know you know your
G   F7M  C 
  Fre____e

Feels so good to be
G   F7M  C 
  Fre____e
G   F7M  C 
  Fre____e
Composición de Donavon Frankenreiter / Jack Johnson
Colaboración y revisión:
1.322 vistas
    • ½ Tono
    • A
    • Bb
    • B
    • C
    • Db
    • D
    • Eb
    • E
    • F
    • F#
    • G
    • Ab
  • Agregar a la lista

    0 comentarios

    Ver todos los comentarios
    00:00 / 00:00
    Outros vídeos desta música
    Repetir Calidad Automático
    Outros vídeos desta música
    00:00 / 00:00
    Automático
    OK