Cifra Club

On My Mind

Donavon Frankenreiter

Cifrado: Principal (guitarra y guitarra eléctrica)
tono: D
(intro) A7+ Bm7 C#m Bm7

(riff 1)
   (D7+) (Dm7)  (A)
E|-5-----5-----5---5h7p5------------------
B|-7-----6-----5---------5h7p5------------
G|-6-----5-----6---------------4h6p4--2---
D|-7-----7-----7--------------------------
A|-5-----5-----7--------------------------
E|-------5-----5--------------------------

(riff 2)
E|-5-----5-----5-----------------5--------
B|-7-----6-----5-------------5h7----------
G|-7-----5-----6-------2-4s6--------------
D|-7-----7-----7---2h4--------------------
A|-5-----5-----7--------------------------
E|-------5-----5--------------------------

(riff 3)
E|-5-----5-----5--------------------------
B|-7-----6-----5--------------------------
G|-7-----5-----6-------2-4s6--4--2--2-----
D|-7-----7-----7---2h4--------------------
A|-5-----5-----7--------------------------
E|-------5-----5--------------------------

(verso 1)
A7+                  Bm7
Ahh baby, let's get down tonight
everytime we do it just feels so right.
Let's go sit underneath that willow tree
Ahh baby, just you and me.

(refrão)
(riff 1)
Even though i can't see you all the time
(riff 2)
i gotta let ya know, your on my mind.
(riff 1)
Even though i can't see you all the time
(riff 3)
i gotta let ya know, your on my mind.

(refrão)
   D7+   Dm7   A
E|-5-----5-----5---5h7p5------------------
B|-7-----6-----5---------5h7p5------------
G|-6-----5-----6---------------4h6p4--2---
D|-7-----7-----7--------------------------
A|-5-----5-----7--------------------------
E|-------5-----5--------------------------

        C#m                              D7+           A
Well I, gotta let you know, that i'll never let you, go...

(verso 2)
Take those clouds, and make a sunny day.
I love to watch you do it just your own way.
Let's go sit underneath that moonlight.
Ahh baby girl you know i'll hold you tight.

(refrão)
A        G           Bm7
On my mind, on my mind again.
Said your, on my, on my mind again.
your, on my mind, on my mind again.

        C#m                              D7+          A
Well I, gotta let you know, that i'll never let you, go...
Composición de Donavon Frankenreiter
Colaboración y revisión:
278 vistas
    • ½ Tono
    • A
    • Bb
    • B
    • C
    • Db
    • D
    • Eb
    • E
    • F
    • F#
    • G
    • Ab
  • Agregar a la lista

    0 comentarios

    Ver todos los comentarios
    00:00 / 00:00
    Outros vídeos desta música
    Repetir Calidad Automático
    Outros vídeos desta música
    00:00 / 00:00
    Automático
    OK