Cifra Club

The Way It Is

Donavon Frankenreiter

Cifrado: Principal (guitarra y guitarra eléctrica)
tono: D
(INTRO)

e|----5-x--7p5------5---4-x----7p4-----4----2-x--5p2------2----0-x-----2p0--------0----------
B|----7-x--------7------5-x---------5-------3-x--------3-------2-x------------2--------------
G|----6-x---------------4-x-----------------2-x----------------1-x---------------------------
D|----7-x---------------6-x-----------------4-x----------------2-x---------------------------
A|----5-x---------------4-x-----------------2-x----------------0-x---------------------------
E|-------------------------------------------------------------------------------------------

(Estrofes)

e|----5---------------4------------------2-----------------0---------------------------------
B|----7-------------- 5------------------3---------------- 2---------------------------------
G|----6---------------4------------------2-----------------1---------------------------------
D|----7---------------6------------------4-----------------2---------------------------------
A|----5---------------4------------------2-----------------0---------------------------------
E|-------------------------------------------------------------------------------------------

(Refrão)

e|------2-----------------0------------------------------------------------------------------
B|------2---------------- 2------------------------------------------------------------------
G|------2-----------------1------------------------------------------------------------------
D|------0-----------------2------------------------------------------------------------------
A|------------------------0------------------------------------------------------------------
E|-------------------------------------------------------------------------------------------

I'm so sorry when I told you
Those smokestacks were making clouds for the sky
But if I told you the truth
It would just bring so many tears
So many tears to your eyes

I said it that's the way it is
And the way it's gonna be
If that's the way it is
I'd rather make believe

Oh remember sitting on that beach
Watching all tha lightning fill up the sky
Well you got so scared
Until I told you it was just fireworks like the fourth
of July

I said it that's the way it is
And the way it's gonna be
If that's the way it is
I'd rather make believe

I Know one day you'll be old enough
To know my stories I told are not true
But when you have your own children
And they ask you questions
You'll know, you'll know just what to do

You'll say it that's the way it is
And the way it's gonna be
If that's the way it is
I'd rather make believe
Oh that's the way it is
And the way it's gonna be
If that's the way it is
I'd rather make believe
For the 204 guys and mine campos pires
Composición de Donavon Frankenreiter
Colaboración y revisión:
  • márcio casagrande
51 vistas
    • ½ Tono
    • A
    • Bb
    • B
    • C
    • Db
    • D
    • Eb
    • E
    • F
    • F#
    • G
    • Ab
  • Agregar a la lista

    0 comentarios

    Ver todos los comentarios
    00:00 / 00:00
    Outros vídeos desta música
    Repetir Calidad Automático
    Outros vídeos desta música
    00:00 / 00:00
    Automático
    OK