My Funeral

Dope

Composición de: Edsel Dope
tono: D
Intro 3x:
E|---------------------------------------------------------------------------|
B|---------------------------------------------------------------------------|
G|---------------------------------------------------------------------------|
D|---8---8---8---8---9---9---9---6---6---6---6---8---8---8---8---------------|
A|-----6---6---6-------6---6---6---6---6---6-------6---6---6-----------------|
E|---------------------------------------------------------------------------|

Pré-Refrão 2x:
E|---------------------------------------------------------------------------|
B|---------------------------------------------------------------------------|
G|---3---4-------------------------------------------------------------------|
D|-----------3---4---3-------------------------------------------------------|
A|-----------------------2---1-----------------------------------------------|
E|---------------------------------------------------------------------------|

Refrão:
E|----------------------------------------------------------------------------|
B|----------------------------------------------------------------------------|
G|---8------4------3------3------8------4------3------3------8----------------|
D|---8------4------3------3------8------4------3------3------8----------------|
A|---6------2------1------1------6------2------1------1------6----------------|
E|----------------------------------------------------------------------------|

(Pré-Refrão)

(Refrão)

Solo 1 - 2x:
E|-----------6---7-------7---6-------6---------------------------------------|
B|-------7-----------7-----------7-------9---6-------------------------------|
G|---8-------------------------------------------7---------------------------|
D|---------------------------------------------------------------------------|
A|---------------------------------------------------------------------------|
E|---------------------------------------------------------------------------|

(Intro 2x)

(Refrão 2x)

Refrão 3x:
E|---------------------------------------------------------------------------|
B|---------------------------------------------------------------------------|
G|---8--8*---------4--4*---------3------3------8--8*-------4--4*-------3---3-|
D|---8------8*-----4------4*-----3------3------8------8*---4------4*---3---3-|
A|---6-------------2-------------1------1------6-----------2-----------1---1-|
E|---------------------------------------------------------------------------|

(Solo 2)
Página 1 / 1

Letras y titulo
Acordes y artista

restablecer los ajustes
OK