Cifra Club

Firesuite

Doves

Cifrado: Principal (guitarra y guitarra eléctrica)
tono: B
Tabbed by: stef
Email: *

Tuning: standard

It sounds better if you only play the middle four strings in the rhythm section;
(the first two times you play E as it starts up I would only play the A,D,G strings)

        E       C#m     C#m     F#

e|----(0)------(4)-----(4)----(2)------------------------|
B|-----0--------5-------5------2-------------------------|
G|-----1--------6-------6------3-------------------------|
D|-----2--------6-------6------4-------------------------|
A|-----2--------4-------4------4-------------------------|
E|----(0)-------x-------x-----(2)------------------------|


Then with a tremelo bar:
(with a bit of reverb & a whole lot of attitude)

e|---------------------------------------------------|
B|--0~------2~---------------------------------------|
G|----1~-1~------------------------------------------|
D|---------------------------------------------------|
A|---------------------------------------------------|
E|---------------------------------------------------|

Bring it on!
Composición de Andy Williams / Jez Williams / Jimi Goodwin
10 vistas
    • ½ Tono
    • A
    • Bb
    • B
    • C
    • Db
    • D
    • Eb
    • E
    • F
    • F#
    • G
    • Ab
  • Agregar a la lista

    0 comentarios

    Ver todos los comentarios

    ¿Lograste tocar?

    0 Tocaron 0 Aún no

    ¡Graba un video tocando Firesuite y envíanoslo!

    00:00 / 00:00
    Outros vídeos desta música
    Repetir Calidad Automático
    Outros vídeos desta música
    00:00 / 00:00
    Automático
    OK