Cifra Club

Let Me Ride

Dr. Dre

Cifrado: Principal (guitarra y guitarra eléctrica)
Selo Cifra Club: esta cifra foi revisada para atender aos critérios oficiais da nossa Equipe de Qualidade.
tono: F
Intro
Melody 2 x4                     Start-----Loop press after 1 repeat
Melody 1 x4
Break x1                        Stop loop
Chorus x4
Break x1
Melody 2 x4                     Start-----Loop press after 1 repeat
Melody 1 x4
Break   x1                      Stop Loop
 (Today was a good day)
Melody 2 x4                     Start-----Loop press after 1 repeat
Melody 1 x4
Break x1                        Stop loop
Chorus x4




First, Digitech Whammy Pedal. Set it to octave +2 or if you have a 24 fret guitar, which 
I do not, octave +1 and add 12 to everything.


Second, there is a sample of a guitar with wah playing this chord, over, and over, and 
over and over, and over. I'm pretty sure it only stops for the Break.


E|--3~~~~~~~~~~|
B|--3~~~~~~~~~~|
G|--3~~~~~~~~~~|
D|--5~~~~~~~~~~|
A|-------------|
E|-------------|
  +_+_+




Intro/Melody 1:

E|--10~~~~~~~8-10-8~~~~~~6-8-6~~~~~~5-----------------|
B|--------------------------------------6-------------|
G|------------------------------------------7~~~~~~~~-|
D|----------------------------------------------------|
A|----------------------------------------------------|
E|----------------------------------------------------|

E|---------------|
B|---------------|
G|--7-5~~~~~~~---|
D|----------8-(7)|
A|---------------|
E|---------------|



Melody 2

E|------------------------------------------|
B|------------------------------------------|
G|------------------------------------------|
D|--------------------------8/10/12~~~~~~~--|
A|------------8/10/12~~~~~~~----------------|
E|--10~~~~~~~~------------------------------|



****Whammy off****

Break

E|--3---------5-4-3~~~|
B|--3---------5-4-3~~~|
G|--3---------5-4-3~~~|
D|--5---------7-6-5~~~|
A|--------------------|
E|--------------------|
  +_+       +_+_+_ +


****Whammy on****


Chorus

E|--3~~~~~~~~~~~~~~~~~| ~~~~~~~~~~~1-3-1~~~~~~~~~|
B|--------------------|---------------------3\1-|
G|--------------------|-------------------------|
D|--------------------|-------------------------|
A|--------------------|-------------------------|
E|--------------------|-------------------------|
Otros videos de esta canción
    23 exhibiciones
      • ½ Tono
      • A
      • Bb
      • B
      • C
      • Db
      • D
      • Eb
      • E
      • F
      • F#
      • G
      • Ab
    • Agregar a la lista

    Afinação da cifra

    Afinador online

      Ops (: Contenido disponible solo en portugués.
      OK